Broken english

Gitaarliedjes, tabs & akkoorden (chords) broken english - rise against

Songtype: Tab

arrow&v

Markeer als favoriet

Favoriet

Gemarkeerd als favoriet

Capo:

0

rise against

rise against

Song
Album
Categorie

broken english

Downloads
12
Niveau
2
Geplaatst door
lastwulf
ProTabs-promo.jpg

Dit is mijn eerste tab, hopelijk werkt hij goed.



Intro Pt.1
eb|-----------------------------------------|
Bb|-----------------------------------------|
Gb|------------------------------------9--8-|
Db|-66666-666-77777-777-99999-999-9999-x--x-|
Ab|-44444-444-44444-444-77777-777-7777-7--6-|
Eb|--...-------...------55555-555-5555------|
...

Intro Pt.2
eb|-------------------------------------|
Bb|-------------------------------------|
Gb|-------------------------------------|
Db|----------66-666-6-44-444-4-44-444-4-|
Ab|-22-222-2-22-222-2-22-222-2-22-222-2-| 3x
Eb|-00-000-0-00-000-0-------------------|

eb|-------------------------------------|
Bb|-------------------------------------|
Gb|---------------------------------9-8-|
Db|-66-666-6-77-777-7-99-999-9-99-9-x-x-| 2x
Ab|-44-444-4-44-444-4-77-777-7-77-7-7-6-|
Eb|-------------------55-555-5-55-5-----|


Verse 1
eb|--------------------------|
Bb|--------------------------|
Gb|-----------9-8------------|
Db|-6~~~~~~~~~x-x------------|
Ab|-4~~~~~~~~~7-6-2~~~~~~~~~-|
Eb|---------------0~~~~~~~~~-|

Verse 2 Continued
eb|----------------------------------------------|
Bb|----------------------------------------------|
Gb|-----------9-8--------------------------------|
Db|-6~~~~~~~~~x-x----------4-444444-2-22222222-4-|
Ab|-4~~~~~~~~~7-6-2~~~~~~--2-222222-0-00000000-2-|
Eb|---------------0~~~~~~------------------------|

Chorus
eb|---------------------------------------|
Bb|---------------------------------------|
Gb|---------------------------------------|
Db|-666-9-99------------------------------|
Ab|-444-7-77-6-66-9-99-7-777777-4-4444444-|
Eb|----------4-44-7-77-5-555555-2-2222222-|
......

eb|--------------------------------------|
Bb|--------------------------------------|
Gb|--------------------------------------|
Db|-666-9-99---------------------4-4-4-4-|
Ab|-444-7-77-6-66-9-99-7-7777777-2-2-2-2-|
Eb|----------4-44-7-77-5-5555555---------|
.......

eb|---------------------------------------|
Bb|---------------------------------------|
Gb|---------------------------------------|
Db|-666-9-99------------------------------|
Ab|-444-7-77-6-66-9-99-7-777777-4-4444444-|
Eb|----------4-44-7-77-5-555555-2-2222222-|
......

eb|---------------------------------------|
Bb|---------------------------------------|
Gb|---------------------------------------|
Db|---------------------------------------|
Ab|-6-6666666666-99-7-7777777-9~~~~-------|
Eb|-4-4444444444-77-5-5555555-7~~~~-------|


Verse 2 (Clean)
eb|-4~~~~~~~~---------0~~~~~~~~0~~~~~~~~-|
Bb|-5~~~~~~~~5~~~~~~~~0~~~~~~~~0~~~~~~~~-|
Gb|-6~~~~~~~~6~~~~~~~~1~~~~~~~~4~~~~~~~~-|
Db|-6~~~~~~~~7~~~~~~~~2~~~~~~~~4~~~~~~~~-| 2x
Ab|-4~~~~~~~~7~~~~~~~~2~~~~~~~~2~~~~~~~~-|
Eb|----------5~~~~~~~~0~~~~~~~~----------|

Verse 2 (Distortion)
eb|-------------------------------------|
Bb|-------------------------------------|
Gb|---------------------------------9-8-|
Db|-66-666-6-77-777-7-99-999-9-99-9-x-x-|
Ab|-44-444-4-44-444-4-77-777-7-77-7-7-6-|
Eb|-------------------55-555-5-55-5-----|

eb|-------------------------------------|
Bb|-------------------------------------| 2x
Gb|-------------------------------------|
Db|----------66-666-6-44-444-4-44-444-4-|
Ab|-22-222-2-22-222-2-22-222-2-22-222-2-|
Eb|-00-000-0-00-000-0-------------------|

eb|--------------|
Bb|--------------|
Gb|--------------|
Db|-2-22222222-4-| "
Ab|-0-00000000-2-|
Eb|--------------|

Chorus
eb|---------------------------------------|
Bb|---------------------------------------|
Gb|---------------------------------------|
Db|-666-9-99------------------------------|
Ab|-444-7-77-6-66-9-99-7-777777-4-4444444-|
Eb|----------4-44-7-77-5-555555-2-2222222-|
......

eb|--------------------------------------|
Bb|--------------------------------------|
Gb|--------------------------------------|
Db|-666-9-99---------------------4-4-4-4-|
Ab|-444-7-77-6-66-9-99-7-7777777-2-2-2-2-|
Eb|----------4-44-7-77-5-5555555---------|
.......

eb|---------------------------------------|
Bb|---------------------------------------|
Gb|---------------------------------------|
Db|-666-9-99------------------------------|
Ab|-444-7-77-6-66-9-99-7-777777-4-4444444-|
Eb|----------4-44-7-77-5-555555-2-2222222-|
......

eb|-----------------------------------|
Bb|-----------------------------------|
Gb|-----------------------------------|
Db|-----------------------------------|
Ab|-6-6666666666-99-7-7777777-9-------|
Eb|-4-4444444444-77-5-5555555-7-------|


eb|----------------------------|
Bb|----------------------------|
Gb|-9\8--------------------9\8-|
Db|-x\x-6-66---------------x\x-| 2x
Ab|-7\6-4-44-2-22-7-77-7-7-7\6-|
Eb|----------0-00-5-55-5-5-----|

Then
eb|------------------------------------------------|
Bb|------------------------------------------------|
Gb|-9\8--------------------------------------------|
Db|-x\x-6-66---------------------------------------|
Ab|-7\6-4-44-2-22-7-77-4-44-6-66666-99-7-7777777-9-|
Eb|----------0-00-5-55-2-22-4-44444-77-5-5555555-7-|


Chorus
eb|---------------------------------------|
Bb|---------------------------------------|
Gb|---------------------------------------|
Db|-666-9-99------------------------------|
Ab|-444-7-77-6-66-9-99-7-777777-4-4444444-|
Eb|----------4-44-7-77-5-555555-2-2222222-|
......

eb|--------------------------------------|
Bb|--------------------------------------|
Gb|--------------------------------------|
Db|-666-9-99---------------------4-4-4-4-|
Ab|-444-7-77-6-66-9-99-7-7777777-2-2-2-2-|
Eb|----------4-44-7-77-5-5555555---------|
.......

eb|---------------------------------------|
Bb|---------------------------------------|
Gb|---------------------------------------|
Db|-666-9-99------------------------------|
Ab|-444-7-77-6-66-9-99-7-777777-4-4444444-|
Eb|----------4-44-7-77-5-555555-2-2222222-|
......

eb|-------------------------------------------------|
Bb|-------------------------------------------------|
Gb|-------------------------------------------------|
Db|-------------------------------------------------|
Ab|-6-6666666666-99-7-7777777-9~~~~11~~~~~~~~-------|
Eb|-4-4444444444-77-5-5555555-7~~~~-9~~~~~~~~-------|

ProTabs promo.jpg

Onbeperkt en gratis toegang tot alle 25.000
Tabs & Chords en direct meespelen met

Artiest Liedje

...

Gitaarakkoorden rise against - broken english

Dankzij de bladmuziek op deze pagina wordt het een stuk makkelijker om met de gitaar mee te spelen met broken english van rise against De ProTabs van Gitaartabs worden door onze professionele gitaardocenten samengesteld. De tabs en chords zijn door leden zelf geplaatst. Deze undefined van rise against met broken english is voor je geschreven door lastwulf

Tabs & Chords van rise against - broken english

Bij de ProTabs delen we niet alleen de tablatuur maar ook de speelwijze van broken english Met een beetje gitaar ervaring moet je dit gitaarliedje zeker kunnen spelen, maar als het niet lukt zijn we er altijd om je te helpen. Door een gratis account aan te maken krijg je niet alleen toegang tot deze tab ,akkoorden & tabs van broken english maar kun je ook onbeperkt meespelen met een van de meer dan 25.000 andere tabs & chords in onze database.

Plaats opmerking

Beoordeel deze song

Rate UsDon’t love itNot greatGoodGreatLove itRate Us

Bedankt voor je beoordeling!