Like the angel

Gitaarliedjes, tabs & akkoorden (chords) Like the angel - rise against

Songtype: Tab

arrow&v

Markeer als favoriet

Favoriet

Gemarkeerd als favoriet

Capo:

0

rise against

rise against

Song
Album
Categorie

Like the angel

Downloads
720
Niveau
2
Geplaatst door
lastwulf
ProTabs-promo.jpg

|---------|---------|---------|-----|
|---------|---------|---------|-----|
|---------|---------|---------|-----|
|---------|---------|---------|-----|
|---------|---------|---------|-----|
|---------|---------|---------|-----|


(A#m)
<
|---------|---------|---------|------||
|---------|---------|---------|------||
|---------|---------|---------|------||
|---------|---------|---------|------||
|---------|---------|---------|-4----||
|---------|---------|---------|-6----||


Verse
$
A#m G#5 C# F#5/C#
PM--------| PM--------| PM--------| PM--------|
|----------------|----------------|----------------|----------------|
|----------------|----------------|----------------|----------------|
|----------------|----------------|----------------|----------------|
|----------------|----------------|-3--3-3-3-3-3-3-|-4--4-4-4-4-4-4-|
|-4--4-4-4-4-4-4-|-6--6-6-6-6-6-6-|-4--4-4-4-4-4-4-|-4--4-4-4-4-4-4-|
|-6--6-6-6-6-6-6-|-4--4-4-4-4-4-4-|----------------|----------------|


C# B#m A#5
PM--------| PM--------| PM--------------------------|
|----------------|----------------|----------------|-----------------|
|----------------|----------------|----------------|-----------------|
|----------------|----------------|----------------|-----------------|
|-3--3-3-3-3-3-3-|-1--1-1-1-1-1-1-|-3--3-3-3-3-3-3-|-3-3-3-3-3-3-3-3-|
|-4--4-4-4-4-4-4-|-3--3-3-3-3-3-3-|-1--1-1-1-1-1-1-|-1-1-1-1-1-1-1-1-|
|----------------|----------------|----------------|-----------------|


A#m G#5 C# F#5/C#
PM--------| PM--------| PM--------| PM--------|
|----------------|----------------|----------------|----------------|
|----------------|----------------|----------------|----------------|
|----------------|----------------|----------------|----------------|
|----------------|----------------|-3--3-3-3-3-3-3-|-4--4-4-4-4-4-4-|
|-4--4-4-4-4-4-4-|-6--6-6-6-6-6-6-|-4--4-4-4-4-4-4-|-4--4-4-4-4-4-4-|
|-6--6-6-6-6-6-6-|-4--4-4-4-4-4-4-|----------------|----------------|


C# B#m A#5
PM--------| PM--------| PM--------------|
|----------------|----------------|----------------|-----------------||
|----------------|----------------|----------------|-----------------||
|----------------|----------------|----------------|---------3-3-3-3-||
|-3--3-3-3-3-3-3-|-1--1-1-1-1-1-1-|-3--3-3-3-3-3-3-|-3-3-3-3-3-3-3-3-||
|-4--4-4-4-4-4-4-|-3--3-3-3-3-3-3-|-1--1-1-1-1-1-1-|-1-1-1-1-1-1-1-1-||
|----------------|----------------|----------------|-----------------||

Chorus
$$
C#5 A#5 G#5
Gtr I
|-----------------|-----------------|-----------------|---------------|
|-----------------|-----------------|-----------------|---------------|
|-6-6-6-6-6-6-6-6-|-6-6-6-6-6-6-6-6-|-6-6-6-6-6-6-6-6-|---------------|
|-x-x-x-x-x-x-x-x-|-x-x-x-x-x-x-x-x-|-x-x-x-x-x-x-x-x-|-8--8-8-6--6-6-|
|-4-4-4-4-4-4-4-4-|-4-4-4-4-4-4-4-4-|-4-4-4-4-4-4-4-4-|-8--8-8-6--6-6-|
|-----------------|-----------------|-----------------|-6--6-6-4--4-4-|
|
| Gtr II
|-----------------|-----------------|-----------------|---------------|
|-----------------|-----------------|-----------------|---------------|
|-6-6-6-6-6-6-6-6-|-6-6-6-6-6-6-6-6-|-6-6-6-6-6-6-6-6-|---------------|
|-x-x-x-x-x-x-x-x-|-x-x-x-x-x-x-x-x-|-x-x-x-x-x-x-x-x-|-8--8-8-6--6-6-|
|-4-4-4-4-4-4-4-4-|-4-4-4-4-4-4-4-4-|-4-4-4-4-4-4-4-4-|-8--8-8-6--6-6-|
|-----------------|-----------------|-----------------|-6--6-6-4--4-4-|


F#5 G#5
|-----------------|----------------|
|-----------------|----------------|
|-----------------|----------------|
|-4---4-4-4-4-4-4-|-6--6-6-6-6-6-6-|
|-4---4-4-4-4-4-4-|-6--6-6-6-6-6-6-|
|-2---2-2-2-2-2-2-|-4--4-4-4-4-4-4-|
|
|-----------------|----------------|
|-----------------|----------------|
|-6-6-6-6-6-6-6-6-|----------------|
|-x-x-x-x-x-x-x-x-|-6--6-6-6-6-6-6-|
|-4-4-4-4-4-4-4-4-|-6--6-6-6-6-6-6-|
|-----------------|-4--4-4-4-4-4-4-|


A#5
|----------------|----------------------------|
|----------------|----------------------------|
|----------------|----------------------------|
|-8--8-8-8-8-8-8-|--8--8---8---8---8---8--8-8-|
|-8--8-8-8-8-8-8-|--8--8---8---8---8---8--8-8-|
|-6--6-6-6-6-6-6-|--6--6---6---6---6---6--6-6-|
|
|----------------|----------------------------|
|----------------|----------------------------|
|----------------|-10-11-(11)-13-(13)-11-10---|
|-8--8-8-8-8-8-8-|----------------------------|
|-8--8-8-8-8-8-8-|--8--9--(9)-11-(11)--9--8---|
|-6--6-6-6-6-6-6-|----------------------------|


F#5 G#5 A#5
|-----------------|----------------|----------------|-----------------|
|-----------------|----------------|----------------|-----------------|
|-----------------|----------------|----------------|-----------------|
|-4---4-4-4-4-4-4-|-6--6-6-6-6-6-6-|-8--8-8-8-8-8-8-|-8-8-8-8-6-6-6-6-|
|-4---4-4-4-4-4-4-|-6--6-6-6-6-6-6-|-8--8-8-8-8-8-8-|-8-8-8-8-6-6-6-6-|
|-2---2-2-2-2-2-2-|-4--4-4-4-4-4-4-|-6--6-6-6-6-6-6-|-6-6-6-6-4-4-4-4-|
|
|-----------------|----------------|----------------|-----------------|
|-----------------|----------------|----------------|-----------------|
|-6-6-6-6-6-6-6-6-|----------------|----------------|---------5-5-5-5-|
|-x-x-x-x-x-x-x-x-|-6--6-6-6-6-6-6-|-8--8-8-8-8-8-8-|-8-8-8-8-x-x-x-x-|
|-4-4-4-4-4-4-4-4-|-6--6-6-6-6-6-6-|-8--8-8-8-8-8-8-|-8-8-8-8-3-3-3-3-|
|-----------------|-4--4-4-4-4-4-4-|-6--6-6-6-6-6-6-|-6-6-6-6---------|

D.S.
D.S.
F#5 G#5 A#5
|-----------------|----------------|----------------|---------------------||
|-----------------|----------------|----------------|---------------------||
|-----------------|----------------|----------------|---------------------||
|-4---4-4-4-4-4-4-|-6--6-6-6-6-6-6-|-8--8-8-8-8-8-8-|--8--8--8--8-8-8-8-8-||
|-4---4-4-4-4-4-4-|-6--6-6-6-6-6-6-|-8--8-8-8-8-8-8-|--8--8--8--8-8-8-8-8-||
|-2---2-2-2-2-2-2-|-4--4-4-4-4-4-4-|-6--6-6-6-6-6-6-|--6--6--6--6-6-6-6-6-||
|
|-----------------|----------------|----------------|---------------------||
|-----------------|----------------|----------------|---------------------||
|-6-6-6-6-6-6-6-6-|----------------|----------------|-10-10-10-10-5-5-5-5-||
|-x-x-x-x-x-x-x-x-|-6--6-6-6-6-6-6-|-8--8-8-8-8-8-8-|--x--x--x--x-x-x-x-x-||
|-4-4-4-4-4-4-4-4-|-6--6-6-6-6-6-6-|-8--8-8-8-8-8-8-|--8--8--8--8-3-3-3-3-||
|-----------------|-4--4-4-4-4-4-4-|-6--6-6-6-6-6-6-|---------------------||

Guitar Solo
A#5 F#5
Gtrs I, II
|---------------------|--------------------------------|
|---------------------|--------------------------------|
|-3--3---3-----3--3---|--------------------------------|
|-3--3---3-----3--3-4-|-(4)-4-4---4----4-----4----4----|
|-1--1---1-----1--1-4-|-(4)-4-4---4----4-----4----4----|
|-------------------2-|-(2)-2-2---2----2-----2----2----|
|
| Gtr III
|---------------------|--------------------------------|
|---------------------|--------------------------------|
|------6-8b10r(8)-6---|----------13p11p==10------------|
|----8--------------8-|-(8)-----------------13p11p==10-|
|-8-------------------|--------------------------------|
|---------------------|--------------------------------|


C#5 G#5
|-----------------------|-----------------------|
|-----------------------|-----------------------|
|--6---6-----6--6--6----|-----------------------|
|--6---6-----6--6--6--6-|--(6)-6-6---6--6--6--6-|
|--4---4-----4--4--4--6-|--(6)-6-6---6--6--6--6-|
|---------------------4-|--(4)-4-4---4--4--4--4-|
|
|-----------------------|-----------------------|
|-----------------------|-----------------------|
|-----------------------|-----------------------|
|-11--11-11-11h13-11-10-|-(10)------10h11-11p10-|
|-----------------------|-----------------------|
|-----------------------|-----------------------|


A#5 F#5
|-----------------------------|-----------------------|
|-----------------------------|-----------------------|
|--3-------3-----3---3---3----|-----------------------|
|--3-------3-----3---3---3--4-|--(4)-4-4---4--4--4--4-|
|--1-------1-----1---1---1--4-|--(4)-4-4---4--4--4--4-|
|---------------------------2-|--(2)-2-2---2--2--2--2-|
|
|-----------------------------|-----------------------|
|-----------------------------|-----------------------|
|-13b15===13-13-13r(13)-11-10-|-(10)------10h11-11p10-|
|-----------------------------|-----------------------|
|-----------------------------|-----------------------|
|-----------------------------|-----------------------|


G#5
|-----------------------|----------------------------|
|-----------------------|----------------------------|
|-----------------------|----------------------------|
|--6---6-----6--6--6--6-|--(6)-6-6---6--6--6------6--|
|--6---6-----6--6--6--6-|--(6)-6-6---6--6--6------6--|
|--4---4-----4--4--4--4-|--(4)-4-4---4--4--4------4--|
|
|-----------------------|----------------------------|
|-----------------------|----------------------------|
|-----------------------|----------------------------|
|-11--11-11-11h13-11-10-|-(10)------10-11-11b13r(11)-|
|-----------------------|----------------------------|
|-----------------------|----------------------------|


A#5 F#5
|---------------------|--------------------------------|
|---------------------|--------------------------------|
|-3--3---3-----3--3---|--------------------------------|
|-3--3---3-----3--3-4-|-(4)-4-4---4----4-----4----4----|
|-1--1---1-----1--1-4-|-(4)-4-4---4----4-----4----4----|
|-------------------2-|-(2)-2-2---2----2-----2----2----|
|
|---------------------|--------------------------------|
|-------------------9-|-(9)-----------------11h13h==14-|
|------6-8b10r(8)-6---|----------10h11h==13------------|
|----8----------------|--------------------------------|
|-8-------------------|--------------------------------|
|---------------------|--------------------------------|


C#5 G#5
|-----------------------|-----------------------|
|-----------------------|-----------------------|
|--6---6-----6--6--6----|-----------------------|
|--6---6-----6--6--6--6-|--(6)-6-6---6--6--6--6-|
|--4---4-----4--4--4--6-|--(6)-6-6---6--6--6--6-|
|---------------------4-|--(4)-4-4---4--4--4--4-|
|
|-11--11-11-11----------|-----------------------|
|--------------14-13-11-|-(11)------11h13-13p11-|
|-----------------------|-----------------------|
|-----------------------|-----------------------|
|-----------------------|-----------------------|
|-----------------------|-----------------------|


A#5 F#5
|-----------------------|-----------------------|
|-----------------------|-----------------------|
|--3---3-----3--3--3----|-----------------------|
|--3---3-----3--3--3--4-|--(4)-4-4---4--4--4--4-|
|--1---1-----1--1--1--4-|--(4)-4-4---4--4--4--4-|
|---------------------2-|--(2)-2-2---2--2--2--2-|
|
|-----------------------|-----------------------|
|-----------------------|-----------------------|
|-10--10-10-10h11-10----|-----------------10-11-|
|--------------------11-|-(11)------11-13-------|
|-----------------------|-----------------------|
|-----------------------|-----------------------|


G#5
|-------------------|--------------------||
|-------------------|--------------------||
|-------------------|--------------------||
|--6-----6--6-6-6-6-|-(6)---6-6--6-6-6-6-||
|--6-----6--6-6-6-6-|-(6)---6-6--6-6-6-6-||
|--4-----4--4-4-4-4-|-(4)---4-4--4-4-4-4-||
|
|-------------------|--------------------||
|-11----------------|-13-----------------||
|-13b15-------------|-15b17--------------||
|-------------------|--------------------||
|-------------------|--------------------||
|-------------------|--------------------||


Verse
A#m G#5 C#
Gtr II
|--------------|-------------|-------------|
|--------------|-------------|-------------|
|--------------|-------------|-------------|
|--------------|-------------|---3---------|
|--4-----------|---6---------|---4---------|
|--6-----------|---4---------|-------------|
|
| Gtr III
|--------------|-------------|-------------|
|-14-----------|-(14)--------|-(14)--------|
|-16b18--------|-------------|-------------|
|--------------|-------------|-------------|
|--------------|-------------|-------------|
|--------------|-------------|-------------|


F#5/C# C# B#m A#5
|----------|----------|----------|----------|--------|
|----------|----------|----------|----------|--------|
|----------|----------|----------|----------|--------|
|-4--------|-3--------|-1--------|-3--------|-(3)----|
|-4--------|-4--------|-3--------|-1--------|-(1)----|
|----------|----------|----------|----------|--------|
|
|----------|----------|----------|----------|--------|
|----------|----------|----------|----------|--------|
|----------|----------|----------|----------|--------|
|----------|----------|----------|----------|--------|
|----------|----------|----------|----------|--------|
|----------|----------|----------|----------|--------|


A#m G#5 C# F#5/C#
|----------|----------|----------|----------|
|----------|----------|----------|----------|
|----------|----------|----------|----------|
|----------|----------|-3--------|-4--------|
|-4--------|-6--------|-4--------|-4--------|
|-6--------|-4--------|----------|----------|


D.S.S. al Coda
C# B#m A#5
Gtr IV
TP
|----------|----------|----------|--------||
|----------|----------|----------|--------||
|----------|----------|----------|--------||
|-3--------|-1--------|-3--------|-x\-----||
|-4--------|-3--------|-1--------|-x\-----||
|----------|----------|----------|-x\-----||


Outro
&
A#m
Gtr I
>
|-----------|-------------|-------------|-------------|
|-----------|-------------|-------------|-------------|
|-----------|-------------|-------------|-------------|
|-----------|-------------|-------------|-------------|
|--4--------|--(4)--------|--(4)--------|--(4)--------|
|--6--------|--(6)--------|--(6)--------|--(6)--------|
|
| Gtr II
| >
|-----------|-------------|-------------|-------------|
|-----------|-------------|-------------|-------------|
|-----------|-------------|-------------|-------------|
|-11--------|-(11)--------|-(11)--------|-(11)--------|
|-----------|-------------|-------------|-------------|
|--9--------|--(9)--------|--(9)--------|--(9)--------|


|-------------|-------------|-------------|---------*|
|-------------|-------------|-------------|---------*|
|-------------|-------------|-------------|---------*|
|-------------|-------------|-------------|---------*|
|--(4)--------|--(4)--------|--(4)--------|--(4)----*|
|--(6)--------|--(6)--------|--(6)--------|--(6)----*|
|
|-------------|-------------|-------------|---------*|
|-------------|-------------|-------------|---------*|
|-------------|-------------|-------------|---------*|
|-(11)--------|-(11)--------|-(11)--------|-(11)----*|
|-------------|-------------|-------------|---------*|
|--(9)--------|--(9)--------|--(9)--------|--(9)----*|

ProTabs promo.jpg

Onbeperkt en gratis toegang tot alle 25.000
Tabs & Chords en direct meespelen met

Artiest Liedje

...

Gitaarakkoorden rise against - Like the angel

Dankzij de bladmuziek op deze pagina wordt het een stuk makkelijker om met de gitaar mee te spelen met Like the angel van rise against De ProTabs van Gitaartabs worden door onze professionele gitaardocenten samengesteld. De tabs en chords zijn door leden zelf geplaatst. Deze undefined van rise against met Like the angel is voor je geschreven door lastwulf

Tabs & Chords van rise against - Like the angel

Bij de ProTabs delen we niet alleen de tablatuur maar ook de speelwijze van Like the angel Met een beetje gitaar ervaring moet je dit gitaarliedje zeker kunnen spelen, maar als het niet lukt zijn we er altijd om je te helpen. Door een gratis account aan te maken krijg je niet alleen toegang tot deze tab ,akkoorden & tabs van Like the angel maar kun je ook onbeperkt meespelen met een van de meer dan 25.000 andere tabs & chords in onze database.

Plaats opmerking

Beoordeel deze song

Rate UsDon’t love itNot greatGoodGreatLove itRate Us

Bedankt voor je beoordeling!