Someting stupid

Gitaarliedjes, tabs & akkoorden (chords) someting stupid - robbie williams

Songtype: Tab

arrow&v

Markeer als favoriet

Favoriet

Gemarkeerd als favoriet

Capo:

0

robbie williams

robbie williams

Song
Album
Categorie

someting stupid

Downloads
249
Niveau
2

Geplaatst door
muyse012
ProTabs-promo.jpg

intro:
Am D Am D G G6
|-----7-8-10-10-8-7h8p7--------10-8-7h8----------------------------------7-10----|
|-8-8-------------------10--------------10-8-7h8p7--------7-8-------7-8----------|
|--------------------------------------------------7--7-9-------7-9--------------|
|--------------------------------------------------------------------------------|
|--------------------------------------------------------------------------------|
|--------------------------------------------------------------------------------|

Gmaj7(1) G
|-8-7h8p7------------------------------------------------------------------------|
|---------8----------------------------------------------------------------------|
|-----------7--------------------------------------------------------------------|
|-------------10-9-7\5-----------------------------------------------------------|
|--------------------------------------------------------------------------------|
|--------------------------------------------------------------------------------|

G G6 Gmaj7(1) G Am7 D
I know I'd stand in line, until you think you have the time to spend an evening with me

Am7 D
|---------0-2-3---2-0-2----------------------------------------------------------|
|---0-1-3------------------------------------------------------------------------|
|-2------------------------------------------------------------------------------|
|--------------------------------------------------------------------------------|
|--------------------------------------------------------------------------------|
|--------------------------------------------------------------------------------|

Am7 D7 Am7 D7 Gmaj7(2) Em7/g
And if we go some place to dance I know that there's a chance you won't be leaving with me

Gmaj7(2) Em7/g
|-10---8p7-8p7-------------------------------------------------------------------|
|--------------10-8-7---8p7------------------------------------------------------|
|-----------------------------9---7---9p7----------------------------------------|
|-----------------------------------------10-9-----------------------------------|
|--------------------------------------------------------------------------------|
|--------------------------------------------------------------------------------|

G7 Dm7 G7 C C6
Then afterwards we drop into a quiet little place and have a drink or two

D#
|-------------------------------------------------------------------------------------|
|-------------6---8-------------------------------------------------------------------|
|-------5-7-8---------10---8---7--------9---------------------------------------------|
|-----8----------------------------10-------------------------------------------------|
|-------------------------------------------------------------------------------------|
|-------------------------------------------------------------------------------------|

Am7 D7 Am7 D7 D7/g G
And then I go and spoil it all, by saying something stupid Like: "I love you"

Gmaj7 G6
|--------------5-7p6-5-----------------------------------------------------------|
|----------8-8-------------------------------------------------------------------|
|--------------------------------------------------------------------------------|
|--------------------------------------------------------------------------------|
|--------------------------------------------------------------------------------|
|--------------------------------------------------------------------------------|

G7 Dm7 G7 C C6
I can see it in your eyes, you still despise the same old lies you heard the night before

C C6
|--------------7-----------------------------------------------------------------|
|-------7h8-10-----8-------------------------------------------------------------|
|-5h7-9----------------9---9-----------------------------------------------------|
|--------------------------------------------------------------------------------|
|--------------------------------------------------------------------------------|
|--------------------------------------------------------------------------------|

A7 Em7 A7 D7 C6
And though it's just a line to you, for me it's true and never seemed so right before

D7
|--------------------------------------------------------------------------------|
|--------------------------------------------------------------------------------|
|-------4-5---2-4-5---2---2------------------------------------------------------|
|-0-2-4--------------------------------------------------------------------------|
|--------------------------------------------------------------------------------|
|--------------------------------------------------------------------------------|

G G6 Gmaj7(1) G Am7 D
I practice every day to find some clever lines to say to make the meaning come true

Am7 D
|-----7-8---7-8-8-10p8p7-7---8---7---8p7-----------------------------------------|
|--10-------------------------------------10---8---------------------------------|
|--------------------------------------------------9-----------------------------|
|--------------------------------------------------------------------------------|
|--------------------------------------------------------------------------------|
|--------------------------------------------------------------------------------|

Am7 D7 Am7 D7 Gmaj7(2) Em7/g
But then I think I'll wait until the evening gets late and I'm alone with you

Gmaj7(2) Em7/g
|--------------------------------------------------------------------------------|
|------7-8-7---8---7-------------------------------------------------------------|
|--7-9-------9-------7---9---7---------------------------------------------------|
|--------------------------9---7-9----7------------------------------------------|
|----------------------------------10--------------------------------------------|
|--------------------------------------------------------------------------------|

G7 Dm7 G7 C C6
The time is right your perfume fills my head, the stars get red and oh the night's so blue

D#
|--------------------------------------------------------------------------------|
|--------------------------------------------------------------------------------|
|-------------------8-7-5h7p5----------------------------------------------------|
|-----------------------------8--------------------------------------------------|
|--------------------------------------------------------------------------------|
|--------------------------------------------------------------------------------|

Am7 D7 Am7 D7 D7/g G Gmaj7(1) G6
And then I go and spoil it all, by saying something stupid like: "I love you"

Solo:
G G6 Gmaj7(1) G Am7 D
|-------------------------------------------------------7------7-----------------|
|-----------------------------------------------------7-----8-----10---7-10------|
|-------------------------------------------------7-9----------------------------|
|------------------------------------------7-9-10--------------------------------|
|--------------------------------------------------------------------------------|
|--------------------------------------------------------------------------------|

Am7 D
|--------------------------------------------------------------------------------|
|-8----8-7----7------------------------------------------------------------------|
|----9------7---9-7-9-7----------------------------------------------------------|
|-----------------------10-------------------------------------------------------|
|--------------------------------------------------------------------------------|
|--------------------------------------------------------------------------------|

Am7 D7 Am7 D7 Gmaj7(2) Em7/g
|-------------------------------------------------------------------------7------|
|-----------------------------------------------------------------------8--------|
|---------------------------------------------------------------------7----------|
|-------------------------------------------------------------------9------------|
|--------------------------------------------------------------------------------|
|--------------------------------------------------------------------------------|

Gmaj7(2) Em7/g
|-10--8-7-8--7-8-8--7------------------------------------------------------------|
|--------------------8-----------------------------------------------------------|
|---------------------7----7-----------------------------------------------------|
|------------------------9-------------------------------------------------------|
|--------------------------------------------------------------------------------|
|--------------------------------------------------------------------------------|

G7 Dm7 G7 C C6 D#
The time is right your parfume fill's my head the stars get red and all the night's so blue

Am7 D7 Am7 D7 D7/g G D#
And then I go and spoil it all, by saying something stupid like: "I love you"

D7/g G D#
|--------------------------------------------------------------------------------|
|--------------------------------------------------------------------------------|
|--------------------------------------------------------------------------------|
|-----------------5-7-8-5-5------------------------------------------------------|
|-------------6-8----------------------------------------------------------------|
|--------------------------------------------------------------------------------|
I love you

D7/g G D#
|-----10-10-10\7-7---6-----------------------------------------------------------|
|-----12-12-12\8-8---8-----------------------------------------------------------|
|------------------8-8-----------------------------------------------------------|
|--------------------------------------------------------------------------------|
|--------------------------------------------------------------------------------|
|--------------------------------------------------------------------------------|
I love you

D7/g G D#
|-----6/8----8/10--10-10\7-7---6-------------------------------------------------|
|-----8/10--10/12--12-12\8-8---8-------------------------------------------------|
|-----8/10--10/12------------8-8-------------------------------------------------|
|--------------------------------------------------------------------------------|
|--------------------------------------------------------------------------------|
|--------------------------------------------------------------------------------|
I love you

D7/g G D#
|--------------------------------------------------------------------------------|
|--------------------------------------------------------------------------------|
|---------------------------5-7-5------------------------------------------------|
|---------------------5-7-8-------8----------------------------------------------|
|-----------5-5-5-6-8------------------------------------------------------------|
|--------------------------------------------------------------------------------|
I love you

D7/g G D#
|--------------------------------------------------------------------------------|
|---------------8---8---7--------------------------------------------------------|
|-----------7-9-----------9-8----------------------------------------------------|
|--------------------------------------------------------------------------------|
|--------------------------------------------------------------------------------|
|--------------------------------------------------------------------------------|
I love you

D7/g G D#
|--------15---14-12--------------------------------------------------------------|
|-------------------15-13-12-13-12-13-12-------11--------------------------------|
|----------------------------------------14-12-----------------------------------|
|--------------------------------------------------------------------------------|
|--------------------------------------------------------------------------------|
|--------------------------------------------------------------------------------|
I love you

ProTabs promo.jpg

Onbeperkt en gratis toegang tot alle 25.000
Tabs & Chords en direct meespelen met

Artiest Liedje

...

Gitaarakkoorden robbie williams - someting stupid

Dankzij de bladmuziek op deze pagina wordt het een stuk makkelijker om met de gitaar mee te spelen met someting stupid van robbie williams De ProTabs van Gitaartabs worden door onze professionele gitaardocenten samengesteld. De tabs en chords zijn door leden zelf geplaatst. Deze undefined van robbie williams met someting stupid is voor je geschreven door muyse012

Tabs & Chords van robbie williams - someting stupid

Bij de ProTabs delen we niet alleen de tablatuur maar ook de speelwijze van someting stupid Met een beetje gitaar ervaring moet je dit gitaarliedje zeker kunnen spelen, maar als het niet lukt zijn we er altijd om je te helpen. Door een gratis account aan te maken krijg je niet alleen toegang tot deze tab ,akkoorden & tabs van someting stupid maar kun je ook onbeperkt meespelen met een van de meer dan 25.000 andere tabs & chords in onze database.

Plaats opmerking

Verstuur

Beoordeel deze song

Rate UsDon’t love itNot greatGoodGreatLove itRate Us

Bedankt voor je beoordeling!