Brown sugar

Gitaarliedjes, tabs & akkoorden (chords) Brown sugar - rolling stones

Songtype: Tab

arrow&v

Markeer als favoriet

Favoriet

Gemarkeerd als favoriet

Capo:

0

rolling stones

rolling stones

Song
Album
Categorie

Brown sugar

sticky fingers

Downloads
712
Niveau
2
Geplaatst door
peter van megen
ProTabs-promo.jpg

Rolling Stones - Brown Sugar (Tuning: DGDGBD)

Intro
-----------------------------D----------------
-13-12--5-5-6-6-9------------B----------------
-12-12--5-5-5-5-9------------G---4 keer-------
-14-12--5-5-7-7-9------------D----------------
-----------------------------G----------------
-----------------------------D----------------

Verse intro

--8-8-8--8--8--5-5-5-5-5--1-1-1-3-3--5-5-5-5------D------------------------
--8-8-9--9--8--5-5-6-6-5--1-2-1-4-3--6-6-6-5------B------------------------
--8-8-8--8--8--5-5-5-5-5--1-1-1-3-3--5-5-5-5------G------2 keer------------
--8-8-10-10-8--5-5-7-7-5--1-3-1-5-3--7-7-7-5------D------------------------
--8-8-8--8--8--5-5-5-5-5--1-1-1-3-3--5-5-5-5------G------------------------
--------------------------------------------------D------------------------

Verse

C F
Gold coast . . . Sold in a market. . .
--5-5-5-5-5-5-5-5--10-10-10-10-10-10-10-10------------------------------
--5-5-5-5-5-7-5-6--10-10-10-10-10-11-10-11------------------------------
--5-5-5-5-5-5-5-5--10-10-10-10-10-10-10-10------------------------------
--5-7-5-5-5-7-5-7--10-12-10-10-10-12-10-12------------------------------
--5-5-5-5-5-5-5-5--10-10-10-10-10-10-10-10------------------------------
------------------------------------------------------------------------

C Bflat
Scarred old . . . Hear him whip . . .
-5-5-5-5-5-5-5-5--------------------------------------------------------
-5-5-5-5-5-7-5-6--------------------------------------------------------
-5-5-5-5-5-5-5-5--------------------------------------------------------
-5-7-5-5-5-7-5-7--3-3-3-3-3-3-5-3-5-5-----------------------------------
-5-5-5-5-5-5-5-5--3-3-3-3-3-3-5-3-5-5-----------------------------------
------------------------------------------------------------------------

Chorus

G C
--------------------------------5-5-5-5-5-5-5-5-5-5---------------------
--------------------------------5-5-5-5-5-5-5-6-6-5---------------------
-0-0------------5---3--0-0-0-0--5-5-5-5-5-5-5-5-5-5---2 keer------------
-0-0-----0-2-0-(5)-(3)-0-0-2-0--5-5-7-5-7-5-5-7-7-5---------------------
-0-0-3/4-0---0-(5)-(3)-0-0-0-0--5-5-5-5-5-5-5-5-5-5---------------------
------------------------------------------------------------------------

Verse Intro (play 1 time, as intro for the 2nd verse)
2nd Verse
Chorus
Sax Solo (Play the Verse Intro, 4 times)
Chorus
3rd Verse
Chorus
Outro (Play Chorus)

Tabs by Peter van Megen

ProTabs promo.jpg

Onbeperkt en gratis toegang tot alle 25.000
Tabs & Chords en direct meespelen met

Artiest Liedje

...

Gitaarakkoorden rolling stones - Brown sugar

Dankzij de bladmuziek op deze pagina wordt het een stuk makkelijker om met de gitaar mee te spelen met Brown sugar van rolling stones De ProTabs van Gitaartabs worden door onze professionele gitaardocenten samengesteld. De tabs en chords zijn door leden zelf geplaatst. Deze undefined van rolling stones met Brown sugar is voor je geschreven door peter van megen

Tabs & Chords van rolling stones - Brown sugar

Bij de ProTabs delen we niet alleen de tablatuur maar ook de speelwijze van Brown sugar Met een beetje gitaar ervaring moet je dit gitaarliedje zeker kunnen spelen, maar als het niet lukt zijn we er altijd om je te helpen. Door een gratis account aan te maken krijg je niet alleen toegang tot deze tab ,akkoorden & tabs van Brown sugar maar kun je ook onbeperkt meespelen met een van de meer dan 25.000 andere tabs & chords in onze database.

Plaats opmerking

Beoordeel deze song

Rate UsDon’t love itNot greatGoodGreatLove itRate Us

Bedankt voor je beoordeling!