Paint it black

Gitaarliedjes, tabs & akkoorden (chords) Paint it black - rolling stones

Songtype: Tab

arrow&v

Markeer als favoriet

Favoriet

Gemarkeerd als favoriet

Capo:

3

rolling stones

rolling stones

Song
Album
Categorie

Paint it black

Downloads
2587
Niveau
1
Geplaatst door
gitaartabs
ProTabs-promo.jpg

Paint it Black


(Intro, fingerpicked:)

^ ^ ^ ^ ^ ^ ^ ^ ^ ^ ^ ^ ^ ^ ^ ^
e:-----0---1---3---|-1---0---------|---------0-----|---------------|
B:-3---------------|---------3---3-|-2---3---2---3-|-2-------------|
G:-----------------|-------------2-|-2---2---2---2-|-2-------------|
D:---0---0---0---0-|---0---0---0-0-|---------------|---------------|
A:-----------------|---------------|---------------|---------------|
E:-----------------|---------------|---------------|---------------|

^ ^ ^ ^ ^ ^ ^ ^ ^ ^ ^ ^ ^ ^ ^
e:-----0---1---3---|-1---0---------|-------------------|-0-----------|
B:-3---------------|-3---3---3---2-|-3---5-------0h2h3-|-----3p2p0-2-|
G:-----------------|-----2---2-----|-------------------|-------------|
D:---0---0---0---0-|---0-------0---|-------------------|-------------|
A:-----------------|---------------|-------------------|-------------|
E:-----------------|---------------|-------------------|-------------|

(Verse:)

^ ^ ^ ^
e:--1--|--------------------1--||
B:--3--|--------------------3--||
G:--2--|--------------------2--||
D:--0--|-----0-----0-----0--0--||
A:-----|--------0-----0-----0--||
E:-----|-----------------------||

^ ^ ^ ^ ^ ^ ^ ^
e:-----------------------------|--------------------------||
B:-----------------------------|--------------------------||
G:--0h2p0----------0-----------|--0-----------0h20--------||
D:--------2-----2-----2-----2--|-----2-----2--------3--2--||
A:-----------4-----------4-----|--------4-----------------||
E:-----------------------------|--------------------------||

(Verse Melody:)

^ ^ ^ ^ ^ ^ ^ ^ ^ ^ ^ ^ ^ ^ ^
e:--------------|--5-----------|-----------------|------------------||
B:-----5--7--8--|-----8--7--5--|--5h75--4--5--7--|--5--4h5p4p2h4----||
G:--------------|--------------|-----------------|------------------||
D:--------------|--------------|-----------------|------------------||
A:--------------|--------------|-----------------|------------------||
E:--------------|--------------|-----------------|------------------||

(Chords verse:)

| Dm | Dm | A7 | A7 |
| / / / / | / / / / | / / / / | / / / / |

| Dm | Dm | A7 | A7 |
| / / / / | / / / / | / / / / | / / / / |

| Dm C | F C | Dm | Dm |
| / / / / | / / / / | / / / / | / / / / |

| Dm C | F C | G | A |
| / / / / | / / / / | / / / / | / / / / |

---

(Lyrics:)

I see a red door and I want it painted black
No colors any more I want them to turn black
I see the girls walk by dressed in their summer clothes
I have to turn my head until the darkness goes

I see a line of cars and they're all painted black
With flowers and my love both never to come back
I see people turn their heads and quickly look away
Like a new born baby it just happens every day

I look inside myself and see my heart is black
I see my red door and I want it painted black
Maybe then I'll fade away and not have to face the fact
It's not easy facing up when your whole world is black

No more will my green sea go turn a deeper blue
I could not forsee this thing happening to you
If I look hard enough into the setting sun
My love will laugh with me before the morning comes

I see a red door and I want it painted black
No colors any more I want them to turn black
I see the girls walk by dressed in their summer clothes
I have to turn my head until the darkness goes

I want to see your face, painted black, black as night

Don't wanna see the sun flying high in the sky
I wanna see it painted, painted, painted, painted black Yeah

ProTabs promo.jpg

Onbeperkt en gratis toegang tot alle 25.000
Tabs & Chords en direct meespelen met

Artiest Liedje

...

Gitaarakkoorden rolling stones - Paint it black

Dankzij de bladmuziek op deze pagina wordt het een stuk makkelijker om met de gitaar mee te spelen met Paint it black van rolling stones De ProTabs van Gitaartabs worden door onze professionele gitaardocenten samengesteld. De tabs en chords zijn door leden zelf geplaatst. Deze undefined van rolling stones met Paint it black is voor je geschreven door gitaartabs

Tabs & Chords van rolling stones - Paint it black

Bij de ProTabs delen we niet alleen de tablatuur maar ook de speelwijze van Paint it black Met een beetje gitaar ervaring moet je dit gitaarliedje zeker kunnen spelen, maar als het niet lukt zijn we er altijd om je te helpen. Door een gratis account aan te maken krijg je niet alleen toegang tot deze tab ,akkoorden & tabs van Paint it black maar kun je ook onbeperkt meespelen met een van de meer dan 25.000 andere tabs & chords in onze database.

Plaats opmerking

Beoordeel deze song

Rate UsDon’t love itNot greatGoodGreatLove itRate Us

Bedankt voor je beoordeling!