On the day

Gitaarliedjes, tabs & akkoorden (chords) on the day - rollins band

Songtype: Tab

arrow&v

Markeer als favoriet

Favoriet

Gemarkeerd als favoriet

Capo:

0

rollins band

rollins band

Song
Album
Categorie

on the day

Downloads
Niveau
2
Geplaatst door
gitaartabs
ProTabs-promo.jpg

On the day

symbols:

7h8 = hammer-on
7p5 = pull-off
7tr9 = rapidly repeated pull-off + hammer-on (=trill)
8b9 = bend 8th fret to 9th
b9 = strike bended tone
7b8r7 = bend 7th fret to 8th and release to old position
7b = bend the string a little bit
~ = vibration
\ = slide down
/ = slide up
\\\ = slow slide down
R = rest


INTRO

E ---------------------|
B ---------------------|
G ---------------------|
D -5-R--5-R--5-R--5-R--|
A -5-R--5-R--5-R--5-R--|
E -3-R--3-R--3-R--3-R--|

VERSE

1.2.3.5.6. time 7. time

E ---------------------|---------------------|
B ---------------------|---------------------|
G ---------------------|---------------------|
D -5---2---R-----------|-5---2---R-------2-5-|
A -5---2---R-----------|-5---2---R-------2-5-|
E -3---0---R-----------|-3---0---R-------0-3-|

4.8. time

E ---------------------|
B ---------------------|
G -2-R--2-R--2-R--2-R--|
D -2-R--2-R--2-R--2-R--|
A -0-R--0-R--0-R--0-R--|
E ---------------------|

the various licks at the verse between the chords:

guitar:

E -----------|-----------|
B -----------|-----------|
G -----------|-----------|
D -7b8r7p5---|-5---------|
A ---------7-|-5tr7------|
E -----------|-----------|

bass:

E -----------|
B -----------|
G -----------|
D -5---------|
A -5tr7-7----|
E -----------|

CHORUS 1st part, let all chords ring and mute
the chords in the first three bars slightly

bass plays A - B - C - C

E -------0-----|-------0-----|-------0-----|-------------|
B ---------1---|---------1---|---------1---|----8-----12-|
G -----2-----2-|-----2-----2-|-----2-----2-|-/9---/12----|
D ---2---------|---2---------|---2---------|-------------|
A -0-----------|-0-----------|-0-----------|-------------|
E -------------|-------------|-------------|-------------|

CHORUS 2nd part

play lick at end of second bar only the first of each two times

E -------------------------|-------------------------|
B -------------------------|---------------12h14p12\-|
G -------------------------|---------------12h14p12\-|
D -------------------------|-------------------------|
A -7---5~---2----------0-2-|-2br-2~----7-------------|
E -------------------------|-----------0-------------|

INTERLUDE, let ring chords and mute slightly

E -------------|
B -------8-----|
G -----9---9---|
D ---9-------9-|
A -7-----------|
E -------------|

bassguitar plays during interlude from the next tones:

E - F# - G - F#
E - F# - G - A
B - C - D - E

SOLO DURING INTERLUDE, let bended tone in 5th bar ring with next tone


E --------|-----------------|-------------------------|
B --------|-----------------|-------------------------|
G --------|-----------------|-------------------------|
D -----12-|-14~---12h14p12~-|-------------------------|
A -/14----|-----------------|-12h14--12-10-9~--9b10r9-|
E --------|-----------------|-------------------------|

E ----------------------|----------------|------------------|
B ----------------------|-------15--12~--|-15b17~---17b19~--|
G -------------------12-|-14b16~---------|------------------|
D -----------9-12-14----|----------------|------------------|
A -7-9-10-12------------|----------------|------------------|
E ----------------------|----------------|------------------|

E ------------------|-----------------------|
B -19b21~---20b21~--|-22b24~-b24~-b24~-b24~-|
G ------------------|-----------------------|
D ------------------|-----------------------|
A ------------------|-----------------------|
E ------------------|-----------------------|

E -------------------------|
B -22b24~----b24-----------|
G -------------------------|
D -------------------------|
A -------------------------|
E ------------------12\\\--|

END

E ---------------------|
B ---------------------|
G ---------------------|
D -5---2---R-----------|
A -5---2---R-----------|
E -3---0---R-----------|

ProTabs promo.jpg

Onbeperkt en gratis toegang tot alle 25.000
Tabs & Chords en direct meespelen met

Artiest Liedje

...

Gitaarakkoorden rollins band - on the day

Dankzij de bladmuziek op deze pagina wordt het een stuk makkelijker om met de gitaar mee te spelen met on the day van rollins band De ProTabs van Gitaartabs worden door onze professionele gitaardocenten samengesteld. De tabs en chords zijn door leden zelf geplaatst. Deze undefined van rollins band met on the day is voor je geschreven door gitaartabs

Tabs & Chords van rollins band - on the day

Bij de ProTabs delen we niet alleen de tablatuur maar ook de speelwijze van on the day Met een beetje gitaar ervaring moet je dit gitaarliedje zeker kunnen spelen, maar als het niet lukt zijn we er altijd om je te helpen. Door een gratis account aan te maken krijg je niet alleen toegang tot deze tab ,akkoorden & tabs van on the day maar kun je ook onbeperkt meespelen met een van de meer dan 25.000 andere tabs & chords in onze database.

Plaats opmerking

Beoordeel deze song

Rate UsDon’t love itNot greatGoodGreatLove itRate Us

Bedankt voor je beoordeling!