Always with me always with you

Gitaarliedjes, tabs & akkoorden (chords) Always with me always with you - satriani

Songtype: Tab

arrow&v

Markeer als favoriet

Favoriet

Gemarkeerd als favoriet

Capo:

0

satriani

satriani

Song
Album
Categorie

Always with me always with you

Downloads
388
Niveau
2
surfing with the alien

Geplaatst door
les paul
ProTabs-promo.jpg




Lead Guitar



|-------------0--|--2------------|--4------2----0--|-------0---------|
|----------4-----|---------------|-----------------|--4-------2------|
|----------------|---------------|-----------------|-----------------|
|----------------|---------------|-----------------|-----------------|
|----------------|---------------|-----------------|-----------------|
|----------------|---------------|-----------------|-----------------|



--------------|-----------------|--0--------------|---------------|
--------------|--0----2--4------|---------4----2--|---------------|
--------------|-----------------|-----------------|---------------|
--------------|-----------------|-----------------|--4------------|
--------------|-----------------|-----------------|---------------|
--------------|-----------------|-----------------|---------------|



----------------|-----------------|----------------|--------------|
----------------|-----------------|--2--------4----|--------------|
----------------|--4--------------|----------------|--------------|
--------4----4--|---------4----4--|----------------|--------------|
----------------|-----------------|----------------|--------------|
----------------|-----------------|----------------|--------------|



----------0---2---|--4----2----0----|---------------|---------------|
--0--4------------|-----------------|--4------------|--2------------|
------------------|-----------------|---------------|---------------|
------------------|-----------------|---------------|---------------|
------------------|-----------------|---------------|---------------|
------------------|-----------------|---------------|---------------|



---------------|---------0--2----|--4------7----7--|--6------9-7-9-7-9-11-|
--0------------|------4----------|-----------------|----------------------|
---------------|-----------------|-----------------|----------------------|
---------------|-----------------|-----------------|----------------------|
---------------|-----------------|-----------------|----------------------|
---------------|-----------------|-----------------|----------------------|



--14------11-9-----|--11------------|----19-----16--14----|
-------------------|----------------|---------------------|
-------------------|----------------|---------------------|
-------------------|----------------|---------------------|
-------------------|----------------|---------------------|
-------------------|----------------|---------------------|



--18-----14----16----|--21------19------|------------------|
---------------------|------------------|--19--------------|
---------------------|------------------|--------------16--|
---------------------|------------------|------------------|
---------------------|------------------|------------------|
---------------------|------------------|------------------|



----16----15-14-13-12-11--14--|--12--11--9--------|--19----------18------|
------------------------------|-------------------|------16--------------|
------------------------------|-------------------|------------------16--|
------------------------------|-------------------|----------------------|
------------------------------|-------------------|----------------------|
------------------------------|-------------------|----------------------|



--16------16--------|--14------------|--------------|--------7------|
--------------------|----------------|--------------|---------------|
------16------------|----------------|--------------|---------------|
--------------------|----------------|--------------|---------------|
--------------------|----------------|--------------|---------------|
--------------------|----------------|--------------|---------------|



--22-------------|----------------------------|--17----14--------|
-----------------|----20----------------------|------------------|
-----------------|----------21-19-21-19-18-16-|------------------|
-----------------|----------------------------|------------------|
-----------------|----------------------------|------------------|
-----------------|----------------------------|------------------|



---------------------|-----------------------------------|
-----14--------12----|--12-------------------5------0-3--|
------------------14-|------14-12-11-9-7-6-7----7-6------|
---------------------|-----------------------------------|
---------------------|-----------------------------------|
---------------------|-----------------------------------|



------------------------------------|---------------|----------21-----|
----2-0---0-----------0-------------|---------------|-----------------|
--------2---2-0---0-2---2-0---------|---------------|-----------------|
----------------4-----------4-2-0---|---------------|-----------------|
----------------------------------4-|---------------|-----------------|
------------------------------------|---------------|-----------------|



-------------------------|----------------------------------------|
-------------------------|----------------14-15-14-12----------11-|
-------------------------|----------14-16-------------14-12-11----|
----------------------14-|----16-17-------------------------------|
----------------16-17----|----------------------------------------|
----------17-19----------|----------------------------------------|



---------------7-|--------------|---------7--14-----|------------------|
-----------------|--------------|-------------------|------------------|
-----------------|--------------|-------------------|--------11--------|
----------9------|--------------|-------------------|------------------|
-----------------|--------------|-------------------|----------------9-|
-----------------|--------------|-------------------|------------------|



---------------|-------9--------7-|----------14-----|----------------|
---------------|------------------|-----------------|----------------|
---------------|------------------|-----------------|----------------|
---------------|------------------|-----------------|----------------|
---------------|------------------|-----------------|----------------|
---------------|------------------|-----------------|----------------|



--------12-------|--------9----7---|--------------|-----------11--12--14-|
-----------------|-----------------|--------------|----------------------|
-----------------|-----------------|--------------|----------------------|
-----------------|-----------------|--------------|----------------------|
-----------------|-----------------|--------------|----------------------|
-----------------|-----------------|--------------|----------------------|



--------------16-|--------14----12--11-|-------11---------|------------------|
-----------------|---------------------|------------------|---------------12-|
-----------------|---------------------|------------------|------------------|
-----------------|---------------------|------------------|------------------|
-----------------|---------------------|------------------|------------------|
-----------------|---------------------|------------------|------------------|



-------9--11------12-|------------9-----|----------------|--------2----2--7-|
---------------------|------------------|----------------|------------------|
---------------------|---------------11-|----------------|------------------|
---------------------|------------------|----------------|------------------|
---------------------|------------------|----------------|------------------|
---------------------|------------------|----------------|------------------|



-----------------9-|----------11----9-|---------------|----11----12----14--16-|
---------7----7----|------------------|---------------|-----------------------|
-------------------|------------------|---------------|-----------------------|
-------------------|------------------|---------------|-----------------------|
-------------------|------------------|---------------|-----------------------|
-------------------|------------------|---------------|-----------------------|



-------14----12----11-|--------------|---------------7-|--------------6-|
----------------------|--------------|-----------------|----------------|
----------------------|--------------|-----------------|----------------|
----------------------|--------------|-----------------|----------------|
----------------------|--------------|-----------------|----------------|
----------------------|--------------|-----------------|----------------|



----7---4-7-----7---4-7---0-|----7-----7---4-7-----7---0-|
------0-----0-4---0-----0---|------0-7---0-----0-7---0---|
----------------------------|----------------------------|
----------------------------|----------------------------|
----------------------------|----------------------------|
----------------------------|----------------------------|



----7-----7-----7-----7---6-|----7---6-7---4-7-----7---4-|
------0-7---0-7---0-7---0---|------0-----0-----0-7---0---|
----------------------------|----------------------------|
----------------------------|----------------------------|
----------------------------|----------------------------|
----------------------------|----------------------------|



----7-----7---0-7-----7---4-|----7-----7---0-7-----7-----|
------0-7---0-----0-7---0---|------0-7---0-----0-4---0---|
----------------------------|--------------------------6-|
----------------------------|----------------------------|
----------------------------|----------------------------|
----------------------------|----------------------------|



----7-----7-----7-----7---6-|----7---6-7---4-7-----7---4-|
------0-----0-----0-----0---|------0-----0-----0-7---0---|
--------6-----6-----6-------|----------------------------|
----------------------------|----------------------------|
----------------------------|----------------------------|
----------------------------|----------------------------|



----7-----7---0-7-----7---4-|----7-----7---0-7-----7---0-|
------0-7---0-----0-7---0---|------0-7---0-----0-4---0---|
----------------------------|----------------------------|
----------------------------|----------------------------|
----------------------------|----------------------------|
----------------------------|----------------------------|



----7---0-7---0-7---0-7---4-|--------2--4--7--9-|--------7--9----12-|
------0-----0-----0-----0-4-|--------2--4--7--9-|--------7--9-------|
----------------------------|-------------------|----------------13-|
----------------------------|-------------------|-------------------|
----------------------------|-------------------|-------------------|
----------------------------|-------------------|-------------------|



---------------14-|---------------14-|----------19----19-|
------------------|------------------|-------------------|
---------------15-|---------------16-|-------------------|
------------------|------------------|-------------------|
------------------|------------------|-------------------|
------------------|------------------|-------------------|



--------16-14--------21-|-----------------23----|----------21--------|
--------------16--------|--------21-19----------|-------24-----------|
------------------------|--------------20-------|--------------------|
------------------------|-----------------------|--------------------|
------------------------|-----------------------|--------------------|
------------------------|-----------------------|--------------------|



-----------------------------|----------------------------------|
-----------------------------|----------------------------------|
-----------------------------|----------------------------------|
-----------------------------|-------------------------18-16----|
-----------------23-21-------|-------------------------------18-|
----23----23-21--------23-23-|----23--22--21-19-21--------------|



-----------------------------------|---------------|------0-2--2--7--11-----|
-----------------------------------|---------------|------------------------|
-----------------------------------|---------------|------------------------|
-------18--------------------------|---------------|------------------------|
----18-18-17-16-14-----------------|---------------|------------------------|
-------------------16-14-11-9-7--9-|---------------|------------------------|



--------9-7-9-7-6-4-6---|-----4-6-4-2---4-2-0----2-|---------------23-|
------------------------|--------------------------|------------------|
------------------------|--------------------------|------------------|
------------------------|--------------------------|------------------|
------------------------|--------------------------|------------------|
------------------------|--------------------------|------------------|



------------------|--------21-------|-----------------|--------------|
---------------24-|-----------------|-----------------|--------------|
------------------|-----------------|-----------------|--------------|
------------------|-----------------|-----------------|--------------|
------------------|-----------------|-----------------|--------------|
------------------|-----------------|----------14-----|--------------|



--------------0--2-|--------------4-|--------2----0----|-------0----------|
--------0--4-------|----------------|----------------4-|----------2-------|
-------------------|----------------|------------------|------------------|
-------------------|----------------|------------------|------------------|
-------------------|----------------|------------------|------------------|
-------------------|----------------|------------------|------------------|



-----------------|-----------------0-|------------------|----------------|
---------------0-|-------2--4--------|--------4----2----|----------------|
-----------------|-------------------|------------------|----------------|
-----------------|-------------------|----------------4-|----------------|
-----------------|-------------------|------------------|----------------|
-----------------|-------------------|------------------|----------------|



------------------|-------------------|----------------|----------------|
------------------|-----------------2-|----------4-----|----------------|
----------------4-|-------------------|----------------|--------------4-|
--------4----4----|---------4----4----|----------------|----------------|
------------------|-------------------|----------------|----------------|
------------------|-------------------|----------------|----------------|



----------0---2---4-|-------2----0------|-----------------|-----------------|
-----4--------------|-----------------4-|---------------2-|---------------0-|
--------------------|-------------------|-----------------|-----------------|
--------------------|-------------------|-----------------|-----------------|
--------------------|-------------------|-----------------|-----------------|
--------------------|-------------------|-----------------|-----------------|



----------------|----------0--2----4-|---------2----0----|-------0----------|
----------------|----0--4------------|-----------------4-|----------2-------|
----------------|--------------------|-------------------|------------------|
----------------|--------------------|-------------------|------------------|
----------------|--------------------|-------------------|------------------|
----------------|--------------------|-------------------|------------------|



--------------------|------------0------------|--------------------------------|
--------------------|------0-2-4------4-2-0---|------0----0--------------------|
--------------------|----3------------------3-|--1-3--------3-1-----------1----|
--------------------|-------------------------|-----------------4-2-1-2-4------|
--------------------|-------------------------|--------------------------------|
--------------------|-------------------------|--------------------------------|



--------------------------------|----------------|---|---|---|---|---|---|---|
--------------------------------|----------------|---|---|---|---|---|---|---|
--------------------------------|----------------|---|---|---|---|---|---|---|
--4-2-1-2-4----2-1---1-2---1----|----------------|---|---|---|---|---|---|---|
-------------------4---------4--|---2------------|---|---|---|---|---|---|---|
--------------------------------|----------------|---|---|---|---|---|---|---|


ProTabs promo.jpg

Onbeperkt en gratis toegang tot alle 25.000
Tabs & Chords en direct meespelen met

Artiest Liedje

...

Gitaarakkoorden satriani - Always with me always with you

Dankzij de bladmuziek op deze pagina wordt het een stuk makkelijker om met de gitaar mee te spelen met Always with me always with you van satriani De ProTabs van Gitaartabs worden door onze professionele gitaardocenten samengesteld. De tabs en chords zijn door leden zelf geplaatst. Deze undefined van satriani met Always with me always with you is voor je geschreven door les paul

Tabs & Chords van satriani - Always with me always with you

Bij de ProTabs delen we niet alleen de tablatuur maar ook de speelwijze van Always with me always with you Met een beetje gitaar ervaring moet je dit gitaarliedje zeker kunnen spelen, maar als het niet lukt zijn we er altijd om je te helpen. Door een gratis account aan te maken krijg je niet alleen toegang tot deze tab ,akkoorden & tabs van Always with me always with you maar kun je ook onbeperkt meespelen met een van de meer dan 25.000 andere tabs & chords in onze database.

Plaats opmerking

Verstuur

Beoordeel deze song

Rate UsDon’t love itNot greatGoodGreatLove itRate Us

Bedankt voor je beoordeling!