School of rock theme

Gitaarliedjes, tabs & akkoorden (chords) School of rock theme - school of rock

Songtype: Tab

arrow&v

Markeer als favoriet

Favoriet

Gemarkeerd als favoriet

Capo:

0

school of rock

school of rock

Song
Album
Categorie

School of rock theme

Downloads
335
Niveau
2

Geplaatst door
rick
ProTabs-promo.jpg

Intro:
e------------------------------------
B--7-7-7-8-8-10-8-7-8-8-8-7-7-8-8----
G--7-7-7-7-7- 7-7-7-7-7-7-7-7-7-7---- 6x
D------------------------------------
A------------------------------------
E------------------------------------


D C
Baby we was makin' straight A's
G C
But we were stuck in the dum days
D C
Don't take much to memorize your lies
G C
I feel like i've been hypnotizised

D C
And then that magic man, he'd come to town
G C
Whooweeh, he come swung my hair around
D C
He said recess is in session, two and two makes five
G
And now baby oh I'm alive, ohyeah oh I'm alive


Refrein:
D G
And if ya wanna be the teachers' pet
C G
Well baby you just better forget it
D C
Rock got no reason, rock got no rhyme
G
You better get me to school on time Ohyeah!


Solo 1(Jack Black)

e----------------------------------------------------------------
b-------10--------------------:::::::::::::::::::::::::::--------
g-9b11===11b9p7~~(7)~~-7h9b10-:10d10u--10d10u--10d10u10d:-10b9p7-
d----------------------------------------------------------------
a----------------------------------------------------------------
e----------------------------------------------------------------



e------------------------------------------------------------
b------------------10-b-12p10-(10)~~~~-12-15-17p15p12-15-15~-
g-7---9p7~~-(7)~~---------------~----------------------------
d---9--------------------------------------------------------
a------------------------------------------------------------
e------------------------------------------------------------


e-----------------------------------------------------------------
b-17b19-17b19--r--17p15p12-15-15~~-10-12-10--12p10-12p10-15-12p10-
g-------------------------------------12--------------------------
d-----------------------------------------------------------------
a-----------------------------------------------------------------
e-----------------------------------------------------------------

ProTabs promo.jpg

Onbeperkt en gratis toegang tot alle 25.000
Tabs & Chords en direct meespelen met

Artiest Liedje

...

Gitaarakkoorden school of rock - School of rock theme

Dankzij de bladmuziek op deze pagina wordt het een stuk makkelijker om met de gitaar mee te spelen met School of rock theme van school of rock De ProTabs van Gitaartabs worden door onze professionele gitaardocenten samengesteld. De tabs en chords zijn door leden zelf geplaatst. Deze undefined van school of rock met School of rock theme is voor je geschreven door rick

Tabs & Chords van school of rock - School of rock theme

Bij de ProTabs delen we niet alleen de tablatuur maar ook de speelwijze van School of rock theme Met een beetje gitaar ervaring moet je dit gitaarliedje zeker kunnen spelen, maar als het niet lukt zijn we er altijd om je te helpen. Door een gratis account aan te maken krijg je niet alleen toegang tot deze tab ,akkoorden & tabs van School of rock theme maar kun je ook onbeperkt meespelen met een van de meer dan 25.000 andere tabs & chords in onze database.

Plaats opmerking

Verstuur

Beoordeel deze song

Rate UsDon’t love itNot greatGoodGreatLove itRate Us

Bedankt voor je beoordeling!