Elf november is de dag

Gitaarliedjes, tabs & akkoorden (chords) Elf november is de dag - Sint maarten

Songtype: Tab

arrow&v

Markeer als favoriet

Favoriet

Gemarkeerd als favoriet

Capo:

0

Sint maarten

Sint maarten

Song
Album
Categorie

Elf november is de dag

Downloads
931
Niveau
0

Geplaatst door
gitaartabs
ProTabs-promo.jpg


E--------------------------------------------------------------
B--------------------------------------1-----------------------
G---2--0---------2--0--------2--0--2------2--0-----0--2--------
D---------3------------3------------------------3--------3-----
A-------------3------------------------------------------------
E--------------------------------------------------------------

E--------------------------------------------------------------
B--------------------------------------1--3--1-----------------
G---2--0---------2--0--------2--0--2------------3--2--0--------
D---------3------------3---------------------------------3-----
A-------------3------------------------------------------------
E--------------------------------------------------------------

11 november is de dag
dat mijn lichtje, dat mijn lichtje
11 november is de dag
dat mijn lichtje branden mag.
Lampionnetje, lampionnetje
Schijn maar in de donkere nacht
Als een sterretje, als een sterretje
Heb je veel geluk gebracht.

ProTabs promo.jpg

Onbeperkt en gratis toegang tot alle 25.000
Tabs & Chords en direct meespelen met

Artiest Liedje

...

Gitaarakkoorden Sint maarten - Elf november is de dag

Dankzij de bladmuziek op deze pagina wordt het een stuk makkelijker om met de gitaar mee te spelen met Elf november is de dag van Sint maarten De ProTabs van Gitaartabs worden door onze professionele gitaardocenten samengesteld. De tabs en chords zijn door leden zelf geplaatst. Deze undefined van Sint maarten met Elf november is de dag is voor je geschreven door gitaartabs

Tabs & Chords van Sint maarten - Elf november is de dag

Bij de ProTabs delen we niet alleen de tablatuur maar ook de speelwijze van Elf november is de dag Met een beetje gitaar ervaring moet je dit gitaarliedje zeker kunnen spelen, maar als het niet lukt zijn we er altijd om je te helpen. Door een gratis account aan te maken krijg je niet alleen toegang tot deze tab ,akkoorden & tabs van Elf november is de dag maar kun je ook onbeperkt meespelen met een van de meer dan 25.000 andere tabs & chords in onze database.

Plaats opmerking

Verstuur

Beoordeel deze song

Rate UsDon’t love itNot greatGoodGreatLove itRate Us

Bedankt voor je beoordeling!