Jongens heb je t al vernomen

Gitaarliedjes, tabs & akkoorden (chords) Jongens heb je t al vernomen - sinterklaas

Songtype: Tab

arrow&v

Markeer als favoriet

Favoriet

Gemarkeerd als favoriet

Capo:

0

sinterklaas

sinterklaas

Song
Album
Categorie

Jongens heb je t al vernomen

Downloads
288
Niveau
2
Geplaatst door
fabian
ProTabs-promo.jpg

De melodie:

e:-------------------------------------------------------------------------
b:------8-8-11-11-8------------9-------------------------------------------
g:--8-8-------------8-10-10-10---7-10-8-8-8--------------------------------
d:-------------------------------------------------------------------------
a:-------------------------------------------------------------------------
E:-------------------------------------------------------------------------

e:-------------------------------------------------------------------------
b:------8-8-11-11-8------------9-------------------------------------------
g:--8-8-------------8-10-10-10---7-10-8-8-8--------------------------------
d:-------------------------------------------------------------------------
a:-------------------------------------------------------------------------
E:-------------------------------------------------------------------------

e:--8-8-11-10-8-8-----------8----------------------------------------------
b:----------------11-11-9-9---11-9-9-8-8-----------------------------------
g:-------------------------------------------------------------------------
d:-------------------------------------------------------------------------
a:-------------------------------------------------------------------------
E:-------------------------------------------------------------------------

e:-------------------------------------------------------------------------
b:-------------9-------8-11------------9-----------------------------------
g:--8-10-10-10---7-8-8------8-10-10-10---7-10-8-8-8------------------------
d:-------------------------------------------------------------------------
a:-------------------------------------------------------------------------
E:-------------------------------------------------------------------------

Jongens heb je ’t al vernomen
Tralala li, ti ralala la
Sinterklaas is aangekomen
Tralala li, ti ralala la
Laat ons zingen hand in hand
Sinterklaas is weer in ’t land
Tralala li, ti ralala la
Ti ralala li, ti ralala la

Mooie winkels, aller wegen,
Tralala li, ti ralala la
Prachtig speelgoed lacht ons tegen
Tralala li, ti ralala la
Laat ons zingen hand in hand
Sinterklaas is weer in ’t land
Tralala li, ti ralala la
Ti ralala li, ti ralala la

Alle kinderen hup’len en springen
Tralala li, ti ralala la
Alle kinderen juigen en zingen
Tralala li, ti ralala la
Laat ons zingen hand in hand
Sinterklaas is weer in ’t land
Tralala li, ti ralala la
Ti ralala li, ti ralala la


Heb je nog vragen, mail me dan ff: fabianpruissen@hotmail.com
Veel Plezier!!!

ProTabs promo.jpg

Onbeperkt en gratis toegang tot alle 25.000
Tabs & Chords en direct meespelen met

Artiest Liedje

...

Gitaarakkoorden sinterklaas - Jongens heb je t al vernomen

Dankzij de bladmuziek op deze pagina wordt het een stuk makkelijker om met de gitaar mee te spelen met Jongens heb je t al vernomen van sinterklaas De ProTabs van Gitaartabs worden door onze professionele gitaardocenten samengesteld. De tabs en chords zijn door leden zelf geplaatst. Deze undefined van sinterklaas met Jongens heb je t al vernomen is voor je geschreven door fabian

Tabs & Chords van sinterklaas - Jongens heb je t al vernomen

Bij de ProTabs delen we niet alleen de tablatuur maar ook de speelwijze van Jongens heb je t al vernomen Met een beetje gitaar ervaring moet je dit gitaarliedje zeker kunnen spelen, maar als het niet lukt zijn we er altijd om je te helpen. Door een gratis account aan te maken krijg je niet alleen toegang tot deze tab ,akkoorden & tabs van Jongens heb je t al vernomen maar kun je ook onbeperkt meespelen met een van de meer dan 25.000 andere tabs & chords in onze database.

Plaats opmerking

Beoordeel deze song

Rate UsDon’t love itNot greatGoodGreatLove itRate Us

Bedankt voor je beoordeling!