Godfather de hele song

Gitaarliedjes, tabs & akkoorden (chords) Godfather de hele song - slash

Songtype: Tab

arrow&v

Markeer als favoriet

Favoriet

Gemarkeerd als favoriet

Capo:

0

slash

slash

Song
Album
Categorie

Godfather de hele song

Downloads
198
Niveau
2
Geplaatst door
!>resh<!
ProTabs-promo.jpg

E|--t10---9-10-t11---10-10-/5---5~~---|

B|------------------------------------|

G|------------------------------------| x2

D|------------------------------------|

A|------------------------------------|

E|------------------------------------|



E|--t10---9-10-t13---10-9-12-11-9-10-9-5-6-5-7-8-3~~|

B|--------------------------------------------------|

G|--------------------------------------------------|

D|--------------------------------------------------|

A|--------------------------------------------------|

E|--------------------------------------------------|



E|---9-12-11-9-12-9-11-9-------------------------|

B|-9--------------------9-8~~--------------------|

G|-----------------------------------------------|

D|-----------------------------------------------|

A|-----------------------------------------------|

E|-----------------------------------------------|



E|---9-12-11-9-12-9-11-9-------------------------------------|

B|-9---------------------9-8-t7---9-12-14-17---9-12-14-15h16-|

G|-----------------------------------------------------------|

D|-----------------------------------------------------------|

A|-----------------------------------------------------------|

E|-----------------------------------------------------------|


E|--------------------------------------------|

B|-9-9-10-9-13-12-9-6-7~~---------------------|

G|--------------------------------------------|

D|--------------------------------------------|

A|--------------------------------------------|

E|--------------------------------------------|




hier boven is nu het intro van godfather wat slash in het begin van het nummer ook speelt!!!
_____________________________________________________________________________________________




|----------------------------------------------------------------|
|-15---14-15-16--15-15---------15---14-15-16--15-15--------------|
|----------------------15---------------------------14-----------|
|----------------------------------------------------------------|
|----------------------------------------------------------------|
|----------------------------------------------------------------|
br br br br
|------------------------/\--------/\-------------/\-------------|
|-15---14-15-18--15-14-15-(15)---14-(14)---/\---14-(14)----------|
|----------------------------------------14-(14)--------14-------|
|----------------------------------------------------------------|
|----------------------------------------------------------------|
|----------------------------------------------------------------|

|----10-13-12-10-13-10-12-10-------------------------------------|
|-10-------------------------11-13-10----------------------------|
|----------------------------------------------------------------|
|----------------------------------------------------------------|
|----------------------------------------------------------------|
|----------------------------------------------------------------|
s
|----10-13-12-10-13-10-12-10-------------------------------------|
|-10-------------------------/10-9-8-----------------------------|
|----------------------------------------------------------------|
|----------------------------------------------------------------|
|----------------------------------------------------------------|
|----------------------------------------------------------------|
s b b/ s
|-----------/-------6-9-9----------------------------------------|
|----6-10-10-----/8---------------13-11-10-13-11-10-10-----------|
|-/7---------------------------10--------------------------------|
|--------------------------/12---------------------------11-12---|
|----------------------------------------------------------------|
|----------------------------------------------------------------|
s
|-10-10-9-8-10/12-10-----------------------------------------10--|
|--------------------11-10----10-13-10-8----8-11-9-10-----10-----|
|----------------------------------------------------------------|
|----------------------------------------------------------------|
|----------------------------------------------------------------|
|----------------------------------------------------------------|
b b b
|-13^12^10--13^12^10--13^12^10---/---/--/--------------------------|
|------------------------------12--12--12-12-10-12-10-9-10-12-10-9-|
|------------------------------------------------------------------|
|------------------------------------------------------------------|
|------------------------------------------------------------------|
|------------------------------------------------------------------|

|-13-12-10-9-10-12-10-9----9-------------------------------------|
|-----------------------10---10-12-10-9----9----12---------------|
|---------------------------------------11---11----11-9----9-----|
|-------------------------------------------------------11---11--|
|----------------------------------------------------------------|
|----------------------------------------------------------------|
s
|-----------------------------9-10-------------------------------|
|--------13-11-10-13-11-10-10------------------------------------|
|-----10---------------------------------------------------------|
|-/12------------------------------------------------------------|
|----------------------------------------------------------------|
|----------------------------------------------------------------|

ProTabs promo.jpg

Onbeperkt en gratis toegang tot alle 25.000
Tabs & Chords en direct meespelen met

Artiest Liedje

...

Gitaarakkoorden slash - Godfather de hele song

Dankzij de bladmuziek op deze pagina wordt het een stuk makkelijker om met de gitaar mee te spelen met Godfather de hele song van slash De ProTabs van Gitaartabs worden door onze professionele gitaardocenten samengesteld. De tabs en chords zijn door leden zelf geplaatst. Deze undefined van slash met Godfather de hele song is voor je geschreven door !>resh<!

Tabs & Chords van slash - Godfather de hele song

Bij de ProTabs delen we niet alleen de tablatuur maar ook de speelwijze van Godfather de hele song Met een beetje gitaar ervaring moet je dit gitaarliedje zeker kunnen spelen, maar als het niet lukt zijn we er altijd om je te helpen. Door een gratis account aan te maken krijg je niet alleen toegang tot deze tab ,akkoorden & tabs van Godfather de hele song maar kun je ook onbeperkt meespelen met een van de meer dan 25.000 andere tabs & chords in onze database.

Plaats opmerking

Beoordeel deze song

Rate UsDon’t love itNot greatGoodGreatLove itRate Us

Bedankt voor je beoordeling!