Eylless

Gitaarliedjes, tabs & akkoorden (chords) Eylless - slipknot

Songtype: Tab

arrow&v

Markeer als favoriet

Favoriet

Gemarkeerd als favoriet

Capo:

0

slipknot

slipknot

Song
Album
Categorie

Eylless

Downloads
1170
Niveau
3

Geplaatst door
spike
ProTabs-promo.jpg

Titel: Eyeless
Artiest: Slipknot
Album:
Capo:
Tuning: E-A-D-G-B-E
uitgezocht door:


--------------------------------------------------------------------------------


Tuning: B F# B E G# C# Lyrics onderaan.



Gtr1 0:07 ? 0:32 (10x)
-12-12-12----12?----12-12-12-12-12-12-12-12-12-12--
----------16----16--16-16-16-16-16-16-16-16?16-16--
---------------------------------------------------
---------------------------------------------------
---------------------------------------------------
---------------------------------------------------

Gtr2 0:12 - 0:13 0:15 - 0:16 0:17 - 0:32 (6x)
-------------------- -------------------- -----------------------------
-------------------- -------------------- -----------------------------
-------------------- -------------------- -----------------------------
-------------------- -------------------- --------------------------1--
-------2---1-------- -------2---1-------- ------2---1---------2---1----
-0-0-3---3---2-0-0-- -0-0-3---3---2-0-0-- -0-0-3---3---2-0-0-0---0------
- - - - - - - - - - - - - -



Gtr1 & Gtr2 0:32 - 0:41 (4x) 0:41 - 0:49 (3x)
-------------------------------- ---------------
-------------------------------- ---------------
-------------------------------- ---------------
-------------------------------- ---------------
-------2---2-3-----5-6-----6-8-- ------2---2-3--
-0-0-0-2-0-2-3-0-0-5-6-0-0-6-8-- --0-0-2-0-2-3--



Gtr1 & Gtr2 0:51 - 1:00 (4x) 1:00 - 1:08 (4x) 1:09 - 1:19 (4x)
-------------------------------------------------------------------------
---------------------------------------------------------------------------
----------------------------------------------------------------------------
---------------------------------------------------------------------------
-------2---2-3-----5-6-----6-8--------2---2-3---------2---2-3-----5-6----8--
-0-0-0-2-0-2-3-0-0-5-6-0-0-6-8----0-0-2-0-2-3---0-0-0-2-0-2-3-0-0-5-6-0-0-8-


Gtr1 & Gtr2 1:19 - 1:27 4x)
------------------------------
------------------------------
------------------------------
-3-3-3--3-3-3-3-3-3-3--3-3-3--
-2-2-2--2-2-2-2-2-2-2--2-2-2--
------------------------------



Gtr1 1:28 ? 1:38 (4x)
-12-12-12----12?----12-12-12-12-12-12-12-12-12-12--
----------16----16--16-16-16-16-16-16-16-16?16-16--
---------------------------------------------------
---------------------------------------------------
---------------------------------------------------
---------------------------------------------------


Gtr2 1:33 - 1:34 1:35 - 1:38
-------------------- ------------------------------
-------------------- ------------------------------
-------------------- ------------------------------
-------------------- ---------------------------1--
-------2---1-------- -------2---1---------2---1----
-0-0-3---3---2-0-0-- -0-0-3---3---2-0-0-0---0------
- - - - - - - - - -


Both 1:38 - 1:46 (4x) 1:47 - 1:56 (4x)
---------------------- ------------------------------
---------------------- ------------------------------
---------------------- ------------------------------
---------------------- ------------------------------
-----2---2-3---------- -----2---2-3-----5-6-----6-8--
-0-0-2-0-2-3---------- -0-0-2-0-2-3-0-0-5-6-0-0-6-8--


Gtr1 & Gtr2 1:56 - 2:05 (4x) 2:05 - 2:17 (5x) 2:17 - 2:19
------------------------------ ------------------------- -----------
------------------------------ -(Bend the 3 as far as -- -----------
------------------------------ ---you can and release)-- -----------
-3-3-3--3-3-3-3-3-3-3--3-3-3-- ------------------------- -----------
-2-2-2--2-2-2-2-2-2-2--2-2-2-- -----------0-1-2--0-1-2-- -----------
------------------------------ -0-0-0-3b--0-1-2--0-1-2-- -0-0-0-3b--


Both 2:19 - 2:27 (3x) 2:27 - 2:28 2:29 - 2:36 (3x)
------------------------- ----------- -------------------------
------------------------- ----------- -------------------------
------------------------- ----------- -------------------------
------------------------- ----------- -------------------------
-----------0-1-2--0-1-2-- ----------- -----------0-1-2--0-1-2--
-0-0-0-3b--0-1-2--0-1-2-- -0-0-0-3b-- -0-0-0-3b--0-1-2--0-1-2--



Both 2:36 - 2:39 (1x) 2:39 - 3:07 (12x)
------------------------- -12-12-12----12----12-12-12-12-12-12-12-12-12-12--
------------------------- ----------16----16-16-16-16-16-16-16-16-16-16-16--
------------------------- --------------------------------------------------
------------------------- --------------------------------------------------
------------------------- --------------------------------------------------
-0-0-0-3b--0-0-0--0-0-0-- --------------------------------------------------

2:39 - 2:56 (4x) 2:58 - 3:05 (2x)
-------------------- ----------------------------
-------------------- ----------------------------
-------------------- ----------------------------
-------------------- ----------------------------
-------------------- ----------------------------
-0-----4-----1--2--- 0tp-----4tp-----1tp---2tp---
P.M. P.M. P.M. P.M.


Both 3:07 - 3:14 (3x) 3:15 - 3:16 3:17 - 3:24 (3x) 3:25 - 3:26
------------------------- ----------- ------------------------- -----------
------------------------- ----------- ------------------------- -----------
------------------------- ----------- ------------------------- -----------
------------------------- ----------- ------------------------- -----------
-----------0-1-2--0-1-2-- ----------- -----------0-1-2--0-1-2-- -----------
-0-0-0-3b--0-1-2--0-1-2-- -0-0-0-3b-- -0-0-0-3b--0-1-2--0-1-2-- -0-0-0-3b--


Both 3:32 - 3:55 (8x)
-------------------------
-------------------------
-------------------------
-------------------------
-----------0-1-2--0-1-2--
-0-0-0-3b--0-1-2--0-1-2--
\\\\\\\\\\\\\\\\\\\\\\\\\\\\\\\\\\\\\\\
Lyrics
Insane - Am I the only muthafucker with a brain?
I'm hearing voices but all they do is complain
How many times have you wanted to kill
Everything and everyone - Say you'll do it but never will


You can't see California without Marlon Brando's eyes


I am my Father's son
Cuz he's a phantom, a mystery and that leaves me
NOTHING!
How many times have you wanted to die?
It's too late for me. All you have to do is get rid of me!


You can't see California without Marlon Brando's eyes


It's all in your head
It's all in my head
It's all in your head


I tried - You lied to me for so long
Everywhere I go, there's a sense of it
Freak on my antics and give me a choice
Doesn't matter if I give a shit
It's shit that you gave me


You can't see California without Marlon Brando's eyes


It's all in your head
It's all in my head
It's all in your head


Do you wanna feel pain? Takin' my name in vain
Caring never felt so lame inside
Anybody else got pride? Do you wanna take my life?
Maybe I'll reverse my ride
Who the fuck are you? FUCK YOU!
Better suck it up cuz you bled through
Better get away from me
Stay the fuck away from me!


I feel safe - Seems your saved

ProTabs promo.jpg

Onbeperkt en gratis toegang tot alle 25.000
Tabs & Chords en direct meespelen met

Artiest Liedje

...

Gitaarakkoorden slipknot - Eylless

Dankzij de bladmuziek op deze pagina wordt het een stuk makkelijker om met de gitaar mee te spelen met Eylless van slipknot De ProTabs van Gitaartabs worden door onze professionele gitaardocenten samengesteld. De tabs en chords zijn door leden zelf geplaatst. Deze undefined van slipknot met Eylless is voor je geschreven door spike

Tabs & Chords van slipknot - Eylless

Bij de ProTabs delen we niet alleen de tablatuur maar ook de speelwijze van Eylless Met een beetje gitaar ervaring moet je dit gitaarliedje zeker kunnen spelen, maar als het niet lukt zijn we er altijd om je te helpen. Door een gratis account aan te maken krijg je niet alleen toegang tot deze tab ,akkoorden & tabs van Eylless maar kun je ook onbeperkt meespelen met een van de meer dan 25.000 andere tabs & chords in onze database.

Plaats opmerking

Verstuur

Beoordeel deze song

Rate UsDon’t love itNot greatGoodGreatLove itRate Us

Bedankt voor je beoordeling!