Left behind

Gitaarliedjes, tabs & akkoorden (chords) Left behind - slipknot

Songtype: Tab

arrow&v

Markeer als favoriet

Favoriet

Gemarkeerd als favoriet

Capo:

0

slipknot

slipknot

Song
Album
Categorie

Left behind

Downloads
311
Niveau
3
Geplaatst door
lastwulf
ProTabs-promo.jpg

Song: Left behind
Artiest Slipknot

G# (-------------------------------------------------------------------)
C# (-------------------------------------------------------------------)
E (-------------------------------------------------------------------)1x
b (---------------------1---------------------------------------1-----)
F# (-----------1/6^v-1-1---1-0-------------------1-----1/6^v 1-1---1-0-)
B (-8-7-1^v-0------------------0-0-0-1/6-1--1-1---1-0-----------------)


Guitar 1 and 2
G# (----------------------------------)
C# (----------------------------------)
E (----------------------------------)3x
b (-----------------------------1----)
F# (------------1-----1/6^v 1-1---1-0-)
B (--1/6-1--1-1---1-0----------------)

G# (-------------------------------)
C# (-------------------------------)
E (-----------------------8888888-)1x
b (-----------------------8888888-)
F# (------------1-----1/6-6666666--)
B (--1/6-1--1-1---1-0-------------)

into...


Guitar 1
G# (------------------------------------------------)
C# (------------------------------------------------)
E (------------------------------------------------)4x
b (--0-0-0-6-6-6-0-0-0-6-6-6-0-0-0-6-6-6-3-3-3-3-3-)
F# (--0-0-0-6-6-6-0-0-0-6-6-6-0-0-0-6-6-6-3-3-3-3-3-)
B (--0-0-0-6-6-6-0-0-0-6-6-6-0-0-0-6-6-6-3-3-3-3-3-)


Guitar 2
G# (----------------------------------------)
C# (--------------888-777-----------888-777-)
E (--------------888-777-----------888-777-)4x
b (--------------666-555-----------666-555-)
F# (----------------------------------------)
B (----------------------------------------)

Guitars 1 and 2
G# (----------------------------------------)
C# (----------------------------------------)
E (--3/8-1/8--1/8--------------------------)1x
b (--3/8-1/8--1/8--------------------------)
F# (--1/6-3/6--3/6--------------------------)
B (----------------------------------------)


Guitar 1
G# (--------------------------------)
C# (--------------------------------)
E (--8-8-8-8-8-8-8-8-2-2-2-2-2-2-2-)
b (--6-6-6-6-6-6-6-6-1-1-1-1-1-1-1-)
F# (--6-6-6-6-6-6-6-6-1-1-1-1-1-1-1-)
B (--6-6-6-6-6-6-6-6-1-1-1-1-1-1-1-)



Guitar 1
G# (----------------------------------)
C# (----------------------------------)
E (----------------------------------)4x
b (--6-6-6-6-6-6-6-6-1-1-1-1-1-1-1---)
F# (--6-6-6-6-6-6-6-6-1-1-1-1-1-1-1---)
B (--6-6-6-6-6-6-6-6-1-1-1-1-1-1-1---)


Guitar 2
G# (------------------------)
C# (--8-8-8-8-8-8/2-2-2-2-2-)
E (--8-8-8-8-8-8/2-2-2-2-2-)4x
b (--6-6-6-6-6-6/1-1-1-1-1-)
F# (------------------------)
B (------------------------)

Guitar 1 and 2
G# (----------------------------------)
C# (----------------------------------)
E (--3/8-1/8--1/8--------------------)4x
b (--3/8-1/8--1/8--------------------)
F# (--1/6-3/6--3/6--------------------)
B (----------------------------------)


G# (---------------------------------)
C# (---------------------------------)
E (---------------------------------)1x
b (-----------------------1---------)
F# (-------------1/6---1-1---1-0-----)
B (--8-7-1^v-0------------------1/6-)



G# (-------------------------)
C# (-------------------------)
E (------------------888888-)1x
b (------------------888888-)
F# (------0-0---1-1/6-666666-)
B (--6/1-----0--------------)

into...

Guitar 1
G# (------------------------------------------------)
C# (------------------------------------------------)
E (------------------------------------------------)1x
b (--0-0-0-6-6-6-0-0-0-6-6-6-0-0-0-6-6-6-3-3-3-3-3-)
F# (--0-0-0-6-6-6-0-0-0-6-6-6-0-0-0-6-6-6-3-3-3-3-3-)
B (--0-0-0-6-6-6-0-0-0-6-6-6-0-0-0-6-6-6-3-3-3-3-3-)

Guiatr 2
G# (----------------------------------------)
C# (--------------888-777-----------888-777-)
E (--------------888-777-----------888-777-)1x
b (--------------666-555-----------666-555-)
F# (----------------------------------------)
B (----------------------------------------)

Guitar 1
G# (-----------------------------------------------------)
C# (-----------------------------------------------------)
E (-----------------------------------------------------)1x
b (--0-0-0-6-6-6-0-0-0-6-6-6-0-0-0-6-6-6-3-3-3-3-3------)
F# (--0-0-0-6-6-6-0-0-0-6-6-6-0-0-0-6-6-6-3-3-3-3-3------)
B (--0-0-0-6-6-6-0-0-0-6-6-6-0-0-0-6-6-6-3-3-3-3-3-1/13-) (or so)

Guitar 2
G# (----------------------------------------)
C# (--------------888-777-----------888-777-)
E (--------------888-777-----------888-777-)1x
b (--------------666-555-----------666-555-)
F# (----------------------------------------)
B (----------------------------------------)

Guitars 1 and 2
G# (----------------------------------------)
C# (----------------------------------------)
E (--3/8-1/8--1/8--------------------------)1x
b (--3/8-1/8--1/8--------------------------)
F# (--1/6-3/6--3/6--------------------------)
B (----------------------------------------

Guitar 1
G# (--------------------------------)
C# (--------------------------------)
E (--8-8-8-8-8-8-8-8-2-2-2-2-2-2-2-)
b (--6-6-6-6-6-6-6-6-1-1-1-1-1-1-1-)
F# (--6-6-6-6-6-6-6-6-1-1-1-1-1-1-1-)
B (--6-6-6-6-6-6-6-6-1-1-1-1-1-1-1-)


Guitar 1
G# (--------------------------------)
C# (--------------------------------)
E (--------------------------------)4x
b (--6-6-6-6-6-6-6-6-1-1-1-1-1-1-1-)
F# (--6-6-6-6-6-6-6-6-1-1-1-1-1-1-1-)
B (--6-6-6-6-6-6-6-6-1-1-1-1-1-1-1-)

Guitar 2
G# (------------------------)
C# (--8-8-8-8-8-8/2-2-2-2-2-)
E (--8-8-8-8-8-8/2-2-2-2-2-)4x
b (--6-6-6-6-6-6/1-1-1-1-1-)
F# (------------------------)
B (------------------------)

Guitar 1 and 2
G# (--------------------------------)
C# (--------------------------------)
E (--3/8-1/8--1/8------------------)4x
b (--3/8-1/8--1/8------------------)
F# (--1/6-3/6--3/6------------------)
B (--------------------------------)



Guitar 1

G# (--------------------------------------------------------------)
C# (--------------------------------------------------------------)
E (--------------------------------------------------------------)5x
b (--------------------------------------------------------------)
F# (--1-1-1/6-6-6-1-1-1/6-6-6-1-1-1/6-----------------------------)
B (----------------------------------7-7-7-7-7-7-7/1-1-1-1-1-1-1-)


G# (---------------------------------------------------------------------)
C# (---------------------------------------------------------------------)
E (---------------------------------------------------------------------)1x
b (---------------------------------------------------------------------)
F# (--1-1-1/6-6-6-1-1-1/6-6-6-1-1-1/6------------------------------------)
B (----------------------------------7-7-7-7-7-7-7/13-13-13-13-13-13-13-)


G# (----------------------11-12-11------11-12-11-11111111-11-11--...
C# (---------11~~~~~--12^-----------12^--------------------------...
E (--8-----8----------------------------------------------------...
b (--8-----8----------------------------------------------------...
F# (--6-----6----------------------------------------------------...
B (-------------------------------------------------------------...

G#-----------11-12-11------------11~~~~~~------18^v^v-)
C#----------------------------------------------------)
E--15-17-15------------15-17-15-----------------------)1x
b--15-17-15------------15-17-15-----------------------)
F#-15-17-15------------15-17-15-----------------------)
B-----------------------------------------------------)

Guitar 1 and 2
G# (-------------------
C# (-------------------
E (--------------------
b (--x\--x\--x\--x\--x\
F# (--x\--x\--x\--x\--x\
B (--x\--x\--x\--x\--x\




Guitar 1
G# (--------------------------------)
C# (--------------------------------)
E (--8-8-8-8-8-8-8-8-2-2-2-2-2-2-2-)
b (--6-6-6-6-6-6-6-6-1-1-1-1-1-1-1-)
F# (--6-6-6-6-6-6-6-6-1-1-1-1-1-1-1-)
B (--6-6-6-6-6-6-6-6-1-1-1-1-1-1-1-)

****************************************************************************

Guitar 1
G# (--------------------------------)
C# (--------------------------------)
E (--------------------------------)3x
b (--6-6-6-6-6-6-6-6-1-1-1-1-1-1-1-)
F# (--6-6-6-6-6-6-6-6-1-1-1-1-1-1-1-)
B (--6-6-6-6-6-6-6-6-1-1-1-1-1-1-1-)


Guiatr 2 with Phaser
G# (------------------------)
C# (--8-8-8-8-8-8/2-2-2-2-2-)
E (--8-8-8-8-8-8/2-2-2-2-2-)3x
b (--6-6-6-6-6-6/1-1-1-1-1-)
F# (------------------------)
B (------------------------)

Guitars 1 and 2
G# (--------------------------------)
C# (--------------------------------)
E (--3/8-1/8--1/8------------------)3x
b (--3/8-1/8--1/8------------------)
F# (--1/6-3/6--3/6------------------)
B (--------------------------------)

Guitar 1
G# (-------------------------------------)
C# (-------------------------------------)
E (-------------------------------------)1x
b (--6-6-6-6-6-6-6-6-1-1-1-1-1-1-1------)
F# (--6-6-6-6-6-6-6-6-1-1-1-1-1-1-1------)
B (--6-6-6-6-6-6-6-6-1-1-1-1-1-1-1-1/13-) (or so)


G# (------------------------)
C# (--8-8-8-8-8-8/2-2-2-2-2-)
E (--8-8-8-8-8-8/2-2-2-2-2-)1x
b (--6-6-6-6-6-6/1-1-1-1-1-)
F# (------------------------)
B (------------------------)

Guitar 1
G# (--------------------------------)
C# (--------------------------------)
E (--------------------------------)1x
b (----------------------1---------)
F# (-------------1/6--1-1---1-0-----)
B (--8-7-1^v-0-----------------1/6-)

G# (-------------------------------)
C# (-------------------------------)
E (-------------------------------)2x
b (-----------------------1-------)
F# (------0-0---1-1/6--1-1---1-0---)
B (--6/1-----0------------------0-)

G# (---------------------------)
C# (---------------------------)
E (---------------------------)1x
b (-----------------------1---)
F# (------0-0---1-1/6--1-1---1-)
B (--6/1-----0----------------)

Guitars 1 and 2
G# (---------------------------)
C# (---------------------------)
E (---------------------------)2x
b (--6-6-0-8-8-0-/13-13-0-6\0-)
F# (--6-6-0-8-8-0-/13-13-0-6\0-)
B (--6-6-0-8-8-0-/13-13-0-6\0-)

G# (-----------------------------)
C# (-----------------------------)
E (-----------------------------)1x
b (--6-6-0-8-8-0-/13-13-0-6-6-0-)
F# (--6-6-0-8-8-0-/13-13-0-6-6-0-)
B (--6-6-0-8-8-0-/13-13-0-6-6-0-)


G# (--------------------------)
C# (--------------------------)
E (--------------------------)1x
b (--6-6-0-8-8-0-/13-13-0-6\-)
F# (--6-6-0-8-8-0-/13-13-0-6\-)
B (--6-6-0-8-8-0-/13-13-0-6\-)



Guitar 1
G# (------------)
C# (------------)
E (------------)8x
b (------------)
F# (------------)
B (--6--6-6-0--)


' = let sustain

Guitar 2
G# (------------------------------------------)
C# (------------------------------------------)
E (------------------------------------------)3x
b (------------------------------------------)
F# (------------------------------------------)
B (--6--6-6-0'''''''''''''''''''''''''''''''-)

ProTabs promo.jpg

Onbeperkt en gratis toegang tot alle 25.000
Tabs & Chords en direct meespelen met

Artiest Liedje

...

Gitaarakkoorden slipknot - Left behind

Dankzij de bladmuziek op deze pagina wordt het een stuk makkelijker om met de gitaar mee te spelen met Left behind van slipknot De ProTabs van Gitaartabs worden door onze professionele gitaardocenten samengesteld. De tabs en chords zijn door leden zelf geplaatst. Deze undefined van slipknot met Left behind is voor je geschreven door lastwulf

Tabs & Chords van slipknot - Left behind

Bij de ProTabs delen we niet alleen de tablatuur maar ook de speelwijze van Left behind Met een beetje gitaar ervaring moet je dit gitaarliedje zeker kunnen spelen, maar als het niet lukt zijn we er altijd om je te helpen. Door een gratis account aan te maken krijg je niet alleen toegang tot deze tab ,akkoorden & tabs van Left behind maar kun je ook onbeperkt meespelen met een van de meer dan 25.000 andere tabs & chords in onze database.

Plaats opmerking

Beoordeel deze song

Rate UsDon’t love itNot greatGoodGreatLove itRate Us

Bedankt voor je beoordeling!