Pulse of the maggots

Gitaarliedjes, tabs & akkoorden (chords) pulse of the maggots - slipknot

Songtype: Tab

arrow&v

Markeer als favoriet

Favoriet

Gemarkeerd als favoriet

Capo:

0

slipknot

slipknot

Song
Album
Categorie

pulse of the maggots

Downloads
63
Niveau
2
Geplaatst door
[b]lack[a]ngel
ProTabs-promo.jpg

Tuning: B F# B E G# C# (Drop-B)
Als je niet weet hoe de tuning moet, ik ga hier binnenkort een videoles op geven (hoe je je gitaar op drop D, drop C en drop B moet tunen). Voor nu zul je het hiermee moeten doen:
De E snaar (6e) moet op de 10e fret hetzelfde klinken als de A snaar (5e). Als je dit hebt gedaan staat de 6e snaar in de B. Hierna moet de de 6e snaar, 7e fret hetzelfde laten klinken als de 5e. De 5e snaar, 5e fret hetzelfde als de 4e snaar. De 4e snaar, 5e fret hetzelfde als de 3e snaar. De 3e snaar, 4e fret hetzelfde als de 2e snaar. En tot slot de 2e snaar, 5e fret hetzelfde als de 1e snaar. Ik hoop dat ik het hiermee een beetje duidelijk heb gemaakt, en succes met PULSE OF THE MAGGOTS

INTRO
-------------------------------------------------------------------------------|
-------------------------------------------------------------------------------|
-------------------------------------------------------------------------------|
-------------------------------------------------------------------------------|
-------------------------------------------------------------------------------|
-0---0---------------0---1-1-1-1-0---0---0---3///////////13~~~~~---------------|
x x x x x x x x x x slide

-------------------------------------------------------------------------------|
-------------------------------------------------------------------------------|
-------------------------------------------------------------------------------|
-------------------------------------------------------------------------------|
-------------------------------------------------------------------------------|
-0---0---------------0---1-1-1-1-0---0---0---3///////////13p-12----------------|
x x x x x x x x x x slide

-------------------------------------------------------------------------------|
-------------------------------------------------------------------------------|
-----------------------------------------------------------------3-----4-----5-|
-----------------------------------------------------------------3-----4-----5-|
-13p-12--13p-12--13p-12--13p-12--13p-12--13p-12--13p-12--13------1-----2-----3-|
-------------------------------------------------------------------------------|
x x x

-------------------------------------------------------------------------------|
-------------------------------------------------------------------------------|
-------------------------------------------------------------------------------|
-------------------------3-----3-----3-----4-----3-----1-----------------------|
-1-1-1---3-3-3---4-4-4---3-----3-----3-----4-----3-----1-----------------------|
-------------------------3-----3-----3-----4-----3-----1-----------------------|
x x x x x x x x x x x x x x x

-------------------------------------------------------------------------------|
-------------------------------------------------------------------------------|
-------------------------------------------------------------------------------|
-------------------------------------------------------------------------------|
-------------------------------------------------------------------------------|
-----0---1-1-1-1-0---0---0---3///////////13------------------------------------| 7x
x x x x x x x x

|---------------|---------------|
|---------------|---------------|
|---------------|---------------|
|-----6----5----|-3--5-3--------|
|-----6----5----|-3--5-3--------|
|0-0-6----5----|-3--5-3--0-1-0-|


COUPLET

-------------------------------------------------------------------------------|
-------------------------------------------------------------------------------|
-------------------------------------------------------------------------------|
-----------------------------------------------------0---1---3---4---3---1---0-|
-----------------------------------------------------0---1---3---4---3---1---0-|
-0---0---------------0---1-1-1-1-0---0---------------0---1---3---4---3---1---0-|
x x x x x x x x x

-------------------------------------------------------------------------------|
-------------------------------------------------------------------------------|
-------------------------------------------------------------------------------|
-------------------------------------------------------------------------------|
-------------------------------------------------------------------------------|
-----0---1-1-1-1-0---0---0---3///////////13------------------------------------|
x x x x x x x x

-------------------------------------------------------------------------------|
-------------------------------------------------------------------------------|
-------------------------------------------------------------------------------|
-----------------------------------------------------0---1---3---4---3---1---0-|
-----------------------------------------------------0---1---3---4---3---1---0-|
-0---0---------------0---1-1-1-1-0---0---------------0---1---3---4---3---1---0-|
x x x x x x x x x

-------------------------------------------------------------------------------|
-------------------------------------------------------------------------------|
-------------------------------------------------------------------------------|
-------------------------------------------------------------------------------|
-------------------------------------------------------------------------------|
-----0---1-1-1-1-0---0---0---3///////////13p-12--------------------------------|
x x x x x x x x


REFREIN

|------------------------------------------------------------|
|------------------------------------------------------------|
|------------------------------------------------------------|
|-----6----5-----3--5-3-------------6----5-----3--5-3--------|
|-----6----5-----3--5-3-------------6----5-----3--5-3--------|
|-0-0-6----5-----3--5-3--0-1-0--0-0-6----5-----3--5-3--0-1-0-|


|--------------------------------------------------------------|
|--------------------------------------------------------------|
|--------------------------------------------------------------|
|-----6----5-----3--5-3-------------6----5-----3--5-3----------|
|-----6----5-----3--5-3-------------6----5-----3--5-3----------|
|-0-0-6----5-----3--5-3--0-1-0--0-0-6----5-----3--5-3--0-1-0---|


|-----------------------------------|
|-----------------------------------|
|-----------------------------------|
|-----------------------------------|
|-----------------------------------|
|-0-0------0-1-1-1-1--0-0-0-3S==13--|

COUPLET

REFREIN

Bridge
GItaar 1
|---------------------------------------------------------------------|
|---------------------------------------------------------------------|
|---------------------------------------------------------------------|
|---------------------------------------------------------------------|
|---3----2-----3--0--2-0-------(0)---3----2-----3--0--2-0-------(0)---|
|---------------------------------------------------------------------|
'Do you understand?'

Gitaar 2
|---------------------------------------------------------------------|
|---------------------------------------------------------------------|
|--10----9----10--7--9-7------------10----9----10--7--9-7-------------|
|-------------------------9-10--9--------------------------9-10--9----|
|---------------------------------------------------------------------|
|---------------------------------------------------------------------|

SOLO
Ja.. Grappig.. Dat lukt me toch echt niet:P, moet ik nog eventjes doorgitaren:)

Pre-Verse
|-----------------------------------------------------------------------|
|----------------------------------------------------------------------o|
|-----------------------------------------------------------------------|
|----1----------------------1--3--4----1----------------------1--3--4---|
|----1----------------------1--3--4----1----------------------1--3--4--o|
|--0-1-0-[3]--0-0-0--0-[3]--1--3--4--0-1-0-[3]--0-0-0--0-[3]--1--3--4---| 4x


COUPLET
|-------------------------------------|
|-------------------------------------|
|-------------------------------------|
|-------------------------------0-1-3-|
|-------------------------------0-1-3-|
|--0-0------0-1-1-1-1--0-0------0-1-3-|


|-------------------------------------|
|-------------------------------------|
|-------------------------------------|
|-4-3-1-0------------------------------|
|-4-3-1-0----------------------------|
|-4-3-1-0---0-1-1-1-1--0-0-0-3S==13---| 4x


REFREIN
|------------------------------------------------------------|
|------------------------------------------------------------|
|------------------------------------------------------------|
|-----6----5-----3--5-3-------------6----5-----3--5-3--------|
|-----6----5-----3--5-3-------------6----5-----3--5-3--------|
|-0-0-6----5-----3--5-3--0-1-0--0-0-6----5-----3--5-3--0-1-0-|




BRIDGE
GItaar 1
|---------------------------------------------------------------------|
|---------------------------------------------------------------------|
|---------------------------------------------------------------------|
|---------------------------------------------------------------------|
|---3----2-----3--0--2-0-------(0)---3----2-----3--0--2-0-------(0)---|
|---------------------------------------------------------------------|
'Say it again'

Gitaar 2
|---------------------------------------------------------------------|
|---------------------------------------------------------------------|
|--10----9----10--7--9-7------------10----9----10--7--9-7-------------|
|-------------------------9-10--9--------------------------9-10--9----|
|---------------------------------------------------------------------|
|---------------------------------------------------------------------|


OUTRO
|-----------------------------------------------------------------------|
|-----------------------------------------------------------------------|
|-----------------------------------------------------------------------|
|----1----------------------1--3--4----1----------------------1--3--4---|
|----1----------------------1--3--4----1----------------------1--3--4--o|
|--0-1-0-[3]--0-0-0--0-[3]--1--3--4--0-1-0-[3]--0-0-0--0-[3]--1--3--4---|

Gitaar 1
|--15-18-17-18-15-18-14--18-15-18-17-18-15-18-14-18-|
|---------------------------------------------------|
|---------------------------------------------------|
|---------------------------------------------------|
|---------------------------------------------------|
|---------------------------------------------------|


Gitaar 2

|---------------------------------------------------|
|---------------------------------------------------|
|---------------------------------------------------|
|---------1-----------------------------------------|
|---------1-----------------------------------------|
|---0-----1-----0----[3]-----------0-----0-----0----|


|-15-18-17--18-15-18---14-15-17-15-14-------------|
|-------------------------------------17-15-(15)--|
|-------------------------------------------------|
|-------------------------------------------------|
|-------------------------------------------------| 3x
|-------------------------------------------------|


|-------------------------------------------------|
|-------------------------------------------------|
|-------------------------------------------------|
|--------------------1-----------3------------4---|
|--------------------1-----------3------------4---|
|--0----[3]----------1-----------3------------4---| 3x



|-15-18-17-18-15-18-14--18-15-18-17-18-15-18-14-18-|
|--------------------------------------------------|
|--------------------------------------------------|
|--------------------------------------------------|
|--------------------------------------------------|
|--------------------------------------------------|


|--------------------------------------------------|
|--------------------------------------------------|
|--------------------------------------------------|
|--------1-----------------------------------------|
|--------1-----------------------------------------|
|--0-----1-----0----[3]-----------0-----0-----0----|


|-15-18-17--18-15-18---14-(14)-15--23-|-(23)--*|
|-------------------------------------|-------*|
|-------------------------------------|-------*|
|-------------------------------------|-------*|
|-------------------------------------|-------*|
|-------------------------------------|-------*|


|-------------------------------------|-------*|
|-------------------------------------|-------*|
|-------------------------------------|-------*|
|--------------------1----------3---4-|--(4)--*|
|--------------------1----------3---4-|--(4)--*|
|--0----[3]----------1----------3---4-|--(4)--*|


Jep, een pittige hiero
Maar het lukt wel,, oefene:)

ProTabs promo.jpg

Onbeperkt en gratis toegang tot alle 25.000
Tabs & Chords en direct meespelen met

Artiest Liedje

...

Gitaarakkoorden slipknot - pulse of the maggots

Dankzij de bladmuziek op deze pagina wordt het een stuk makkelijker om met de gitaar mee te spelen met pulse of the maggots van slipknot De ProTabs van Gitaartabs worden door onze professionele gitaardocenten samengesteld. De tabs en chords zijn door leden zelf geplaatst. Deze undefined van slipknot met pulse of the maggots is voor je geschreven door [b]lack[a]ngel

Tabs & Chords van slipknot - pulse of the maggots

Bij de ProTabs delen we niet alleen de tablatuur maar ook de speelwijze van pulse of the maggots Met een beetje gitaar ervaring moet je dit gitaarliedje zeker kunnen spelen, maar als het niet lukt zijn we er altijd om je te helpen. Door een gratis account aan te maken krijg je niet alleen toegang tot deze tab ,akkoorden & tabs van pulse of the maggots maar kun je ook onbeperkt meespelen met een van de meer dan 25.000 andere tabs & chords in onze database.

Plaats opmerking

Beoordeel deze song

Rate UsDon’t love itNot greatGoodGreatLove itRate Us

Bedankt voor je beoordeling!