Sing in silence

Gitaarliedjes, tabs & akkoorden (chords) Sing in silence - sonata arctica

Songtype: Tab

arrow&v

Markeer als favoriet

Favoriet

Gemarkeerd als favoriet

Capo:

0

sonata arctica

sonata arctica

Song
Album
Categorie

Sing in silence

Downloads
557
Niveau
2
silence

Geplaatst door
joyce
ProTabs-promo.jpg

Sonata Arctica - Sing in Silence tab.
Let op! Deze tab is voor de elektrische gitaar. Mocht je dit nummer mee willen spelen, stem je gitaar dan 1 toon lager!


Gtr 1
|----------|------------|------------|-------------------|
|----------|------------|------------|-------------------|
|----------|------------|------------|-------------------|
|-3--------|-(3)--------|-(3)--------|-(3)----(3)-3-3-5--|
|-3--------|-(3)--------|-(3)--------|-(3)----(3)-3-3-5--|
|-1--------|-(1)--------|-(1)--------|-(1)----(1)-1-1-3--|



Chorus
4x
||-------------|-----------|----------|-------||
||o------------|-----------|----------|------o||
||-------------|-----------|-9--------|-7-----||
||--7-----9----|-10--------|-9--------|-7-----||
||o-7----10----|-10--------|-7--------|-5----o||
||--5-----7----|--8--------|----------|-------||


Bridge

|----------|------------|----------|--------|
|----------|------------|----------|--------|
|----------|------------|----------|--------|
|-3--------|-(3)--------|-3--------|-(3)----|
|-3--------|-(3)--------|-3--------|-(3)----|
|-1--------|-(1)--------|-1--------|-(1)----|


Verse

|----------|------------|------------|--------|
|----------|------------|------------|--------|
|-2--------|-(2)--------|-(2)--------|-(2)----|
|-2--------|-(2)--------|-(2)--------|-(2)----|
|-0--------|-(0)--------|-(0)--------|-(0)----|
|----------|------------|------------|--------|


|-----------|------------|------------|--------|
|-----------|------------|------------|--------|
|-----------|------------|------------|--------|
|-3-3-------|-(3)--------|-(3)--------|-(3)----|
|-3-3-------|-(3)--------|-(3)--------|-(3)----|
|-1-1-------|-(1)--------|-(1)--------|-(1)----|


Gitaar Solo
(Dit klopt niet helemaal, maar toch..)

Gtr 1
|-----------------|------------------|----------------|--------------------|
|-----------------|------------------|----------------|--------------------|
|----7b8r7----(7)-|------------------|----------------|--------------------|
|-----------------|--6--5------5h6-5-|-(5)------------|--------------------|
|-----------------|--------8---------|------8-6---8-5-|-(5)-6-5-6-5--------|
|-----------------|------------------|----------------|-------------8-8----|


Gtr 2

|-----------------|------------------|----------------|--------------------|
|-----------------|------------------|----------------|--------------------|
|-----------------|-10-------------8-|-(8)------------|--------------------|
|---10---8----(8)-|-10----10-------8-|-(8)----8-------|--------------------|
|---10---8----(8)-|--8----10-------6-|-(6)----8-----6-|-(6)----------------|
|----8---6----(6)-|--------8---------|--------6-----4-|-(4)-4-4-4-4-4-4-4--|


|-------------------8-11-----(11)-|-11-10------------------|
|-----------------8---------------|-------11---------------|
|---------------8-----------------|----------10pb12r=10----|
|------------10-------------------|------------------------|
|---------10----------------------|------------------------|
|----8-11-------------------------|------------------------|

|---------------------------------|------------------------|
|---------------------------------|------------------------|
|---------------------------------|-10-------------------8-|
|---10-----8-------------(8)------|-10-------10----------8-|
|---10-----8-------------(8)------|--8-------10----------6-|
|----8-----6-------------(6)------|-----------8------------|


|-----------------|-------------------|
|-----------------|-------------------|
|--7--8-7---------|-------------------|
|---------8-----5-|--5--6-5-----------|
|------------8----|---------6---------|
|-----------------|-------------------|


|-----------------|-------------------|
|-----------------|-------------------|
|-(8)-------------|-------------------|
|-(8)-----8-------|-------------------|
|-(6)-----8-----6-|-(6)---------------|
|---------6-----4-|-(4)-4-4-4-4-4-4-4-|


Gitaar Solo 2
|-------------|-------------|---------------|------------------|
|-------------|-------------|---------------|------------------|
|-------------|-------------|---/9-7--------|------------------|
|-----10-7----|-(7)---------|----------10-9-|-(9)--10-9--------|
|---7---------|-------------|---------------|-------------10-7-|
|-------------|-------------|---------------|------------------|


|--------------|----------|------8-10-10b12r=10--|
|--------------|----------|--/10-----------------|
|----------7---|-9--------|----------------------|
|------7-------|----------|----------------------|
|-(7)----------|----------|----------------------|
|--------------|----------|----------------------|


|----------------------12-------12-13----12-13-15--|
|----12-13-15-12-13-15----13-15-------15-----------|
|-14-----------------------------------------------|
|--------------------------------------------------|
|--------------------------------------------------|
|--------------------------------------------------|


Brigde
Gtr II
|-----------|------------|------------|------------------|
|-----------|------------|------------|------------------|
|-----------|------------|------------|------------------|
|--3--------|-(3)--------|-(3)--------|-(3)----(3)-3-3-5-|
|--3--------|-(3)--------|-(3)--------|-(3)----(3)-3-3-5-|
|--1--------|-(1)--------|-(1)--------|-(1)----(1)-1-1-3-|


Gtr 1

|-17--------|------------|------------|------------------|
|-----------|------------|------------|------------------|
|-----------|------------|------------|------------------|
|-----------|------------|------------|------------------|
|-----------|------------|------------|------------------|
|-----------|------------|------------|------------------|


Chorus
Gtr 2
4x
||-------------|-----------|----------|-------||
||o------------|-----------|----------|------o||
||-------------|-----------|-9--------|-7-----||
||--7-----9----|-10--------|-9--------|-7-----||
||o-7----10----|-10--------|-7--------|-5----o||
||--5-----7----|--8--------|----------|-------||

ProTabs promo.jpg

Onbeperkt en gratis toegang tot alle 25.000
Tabs & Chords en direct meespelen met

Artiest Liedje

...

Gitaarakkoorden sonata arctica - Sing in silence

Dankzij de bladmuziek op deze pagina wordt het een stuk makkelijker om met de gitaar mee te spelen met Sing in silence van sonata arctica De ProTabs van Gitaartabs worden door onze professionele gitaardocenten samengesteld. De tabs en chords zijn door leden zelf geplaatst. Deze undefined van sonata arctica met Sing in silence is voor je geschreven door joyce

Tabs & Chords van sonata arctica - Sing in silence

Bij de ProTabs delen we niet alleen de tablatuur maar ook de speelwijze van Sing in silence Met een beetje gitaar ervaring moet je dit gitaarliedje zeker kunnen spelen, maar als het niet lukt zijn we er altijd om je te helpen. Door een gratis account aan te maken krijg je niet alleen toegang tot deze tab ,akkoorden & tabs van Sing in silence maar kun je ook onbeperkt meespelen met een van de meer dan 25.000 andere tabs & chords in onze database.

Plaats opmerking

Verstuur

Beoordeel deze song

Rate UsDon’t love itNot greatGoodGreatLove itRate Us

Bedankt voor je beoordeling!