I'cant explain van k-otic

Gitaarliedjes, tabs & akkoorden (chords) I'cant explain van k-otic - starmaker

Songtype: Tab

arrow&v

Markeer als favoriet

Favoriet

Gemarkeerd als favoriet

Capo:

0

starmaker

starmaker

Song
Album
Categorie

I'cant explain van k-otic

Downloads
561
Niveau
1
Geplaatst door
gitaartabs
ProTabs-promo.jpg

I'cant explain van K-Otic

E-|----------------------------------------------------|
B-|----------0--------1-----------3--0-----------------|
G-|----2--------2--------2-----2-----0--2--0h2p0-------|
D-|-2-----2--------2--------0---------------------h3---|
A-|-0--------------------------------------------------|
E-|----------------------------------------------------|

E-|----------------------------------------------------|
B-|----------0--------1-----------3--0-----------------|
G-|----2--------2--------2-----2-----0-----------------|
D-|-2-----2--------2--------0--------------------------|
A-|-0--------------------------------------------------|
E-|----------------------------------------------------|

ProTabs promo.jpg

Onbeperkt en gratis toegang tot alle 25.000
Tabs & Chords en direct meespelen met

Artiest Liedje

...

Gitaarakkoorden starmaker - I'cant explain van k-otic

Dankzij de bladmuziek op deze pagina wordt het een stuk makkelijker om met de gitaar mee te spelen met I'cant explain van k-otic van starmaker De ProTabs van Gitaartabs worden door onze professionele gitaardocenten samengesteld. De tabs en chords zijn door leden zelf geplaatst. Deze undefined van starmaker met I'cant explain van k-otic is voor je geschreven door gitaartabs

Tabs & Chords van starmaker - I'cant explain van k-otic

Bij de ProTabs delen we niet alleen de tablatuur maar ook de speelwijze van I'cant explain van k-otic Met een beetje gitaar ervaring moet je dit gitaarliedje zeker kunnen spelen, maar als het niet lukt zijn we er altijd om je te helpen. Door een gratis account aan te maken krijg je niet alleen toegang tot deze tab ,akkoorden & tabs van I'cant explain van k-otic maar kun je ook onbeperkt meespelen met een van de meer dan 25.000 andere tabs & chords in onze database.

Plaats opmerking

Beoordeel deze song

Rate UsDon’t love itNot greatGoodGreatLove itRate Us

Bedankt voor je beoordeling!