Throug the glass

Gitaarliedjes, tabs & akkoorden (chords) Throug the glass - stone sour

Songtype: Tab

arrow&v

Markeer als favoriet

Favoriet

Gemarkeerd als favoriet

Capo:

0

stone sour

stone sour

Song
Album
Categorie

Throug the glass

Downloads
299
Niveau
2
Geplaatst door
kevin
ProTabs-promo.jpg

Kevin Bruin

Stone Sour - Throug the glass

Halve toon lager gestemd: D# G# C# F# Bb d#

Intro:

e|----------------------------------------------|
B|-----0-------0--------------------------------|
G|---0-------0-----------0-------------0--------| 2x
D|---------------------9----9--------9----9-----|
A|-3-------5---------7--------7---7---------7---|
E|-----------------0-------------0--------------|

e--0--|
B--0--|
G--9--|
D--9--|
A--7--|
E--x--|

Verse:
e|--------------------------------------------------|
B|----0----0------0----0------0----0------0---00----|
G|----0----0------0----0------0----0------0---00----| 3x
D|-5--5-55-5---7--7-77-7---9--9-99-9---9--9-9/77----|
A|-3--3-33-3---5--5-55-5---7--7-77-7---7--7-7/55----|
E|--------------------------------------------------|

Chorus:
e|-----------------------------------------------------------------|
B|-----------------------------------------------------------------|
G|-5--55--5-5-55---7--77--7-7-77---9--99--9-9-99---9--99--9-9-99---|
D|-5--55--5-5-55---7--77--7-7-77---9--99--9-9-99---9--99--9-9-99---| 2x
A|-3--33--3-3-33---5--55--5-5-55---7--77--7-7-77---7--77--7-7-77---|
E|-----------------------------------------------------------------|

(Verse:)
(Chorus:) 4x

Bridge:
e|-------xxx--xxxxxx-------xxx--xxxxxx-------------|
B|-------xxx--xxxxxx-------xxx--xxxxxx-------------|
G|-5--55-xxx--xxxxxx-7--77-xxx--xxxxxx-9--9--99999-|
D|-5--55-xxx--xxxxxx-7--77-xxx--xxxxxx-9--9--99999-| 2x
A|-3--33-xxx--xxxxxx-5--55-xxx--xxxxxx-7--7--77777-|
E|-------xxx--xxxxxx-------xxx--xxxxxx-------------|

e|------------------------------------------------------------|
B|------------------------------------------------------------|
G|-5--------------7--------------------0-------------0--------|
D|-5--------------7------------------2----2--------2----2-----|
A|-3--------------5----------------2--------2---2---------2---|
E|-------------------------------0-------------0--------------|

e|-----------------------------|
B|-----0-------0---------------|
G|---0-------0-----------------|
D|-----------------------------|
A|-3-------5-------------------|
E|-----------------0-----------|

Gedempt:
e|-----------------------------------------------------------------|
B|-----------------------------------------------------------------|
G|-5-5-5-5-5-5-5-5-7-7-7-7-7-7-7-7---------------------------------|
D|-5-5-5-5-5-5-5-5-7-7-7-7-7-7-7-7-2-2-2-2-2-2-2-2-2-2-2-2-2-2-2-2-|
A|-3-3-3-3-3-3-3-3-5-5-5-5-5-5-5-5-2-2-2-2-2-2-2-2-2-2-2-2-2-2-2-2-|
E|---------------------------------0-0-0-0-0-0-0-0-0-0-0-0-0-0-0-0-|


Bridge:
e|---------------------------------0--00--0-0-00---0--00--0-0-00-----|
B|---------------------------------0--00--0-0-00---0--00--0-0-00-----|
G|-5--55--5-5-55---7--77--7-7-77---0--00--0-0-00---0--00--0-0-00-----|
D|-5--55--5-5-55---7--77--7-7-77---2--22--2-2-22---2--22--2-2-22-----|
A|-3--33--3-3-33---5--55--5-5-55---2--22--2-2-22---2--22--2-2-22-----|
E|---------------------------------0--00--0-0-00---0--00--0-0-00-----|

e|-------------------------------|
B|-------------------------------|
G|-121212--111111-999-777--------|
D|-x-x-x---x-x-x--xxx-xxx--------|
A|-101010--9-9-9--777-555--------|
E|-------------------------------|

End:
e|-0------|
B|-0------|
G|-0------|
D|-2------|
A|-2------|
E|-0------|

ProTabs promo.jpg

Onbeperkt en gratis toegang tot alle 25.000
Tabs & Chords en direct meespelen met

Artiest Liedje

...

Gitaarakkoorden stone sour - Throug the glass

Dankzij de bladmuziek op deze pagina wordt het een stuk makkelijker om met de gitaar mee te spelen met Throug the glass van stone sour De ProTabs van Gitaartabs worden door onze professionele gitaardocenten samengesteld. De tabs en chords zijn door leden zelf geplaatst. Deze undefined van stone sour met Throug the glass is voor je geschreven door kevin

Tabs & Chords van stone sour - Throug the glass

Bij de ProTabs delen we niet alleen de tablatuur maar ook de speelwijze van Throug the glass Met een beetje gitaar ervaring moet je dit gitaarliedje zeker kunnen spelen, maar als het niet lukt zijn we er altijd om je te helpen. Door een gratis account aan te maken krijg je niet alleen toegang tot deze tab ,akkoorden & tabs van Throug the glass maar kun je ook onbeperkt meespelen met een van de meer dan 25.000 andere tabs & chords in onze database.

Plaats opmerking

Beoordeel deze song

Rate UsDon’t love itNot greatGoodGreatLove itRate Us

Bedankt voor je beoordeling!