Alors on dance

Gitaarliedjes, tabs & akkoorden (chords) Alors on dance - stromae

Songtype: Tab

arrow&v

Markeer als favoriet

Favoriet

Gemarkeerd als favoriet

Capo:

0

stromae

stromae

Song
Album
Categorie

Alors on dance

Downloads
854
Niveau
1
alors on dance

Geplaatst door
*roelof*
ProTabs-promo.jpg

----------------------------------------------------------------------
alors on dance- stromea-- made by *roelof*
---------------------------------------------------------------------
good luck! ;)


0,50 SECONDEN PER NOOT

e-------------------------------------------------------------/ e--------------------/
b-------------------------------------------------------------/ b--------------------/
g--------------------2----2----2----------3-------------------/ 13X HERHALEN g----------------0---/ 9X HERHALEN
d------------0-----------------------3----------2----2----2---/ d--2-3--3-3--3-3---2-/
a----0--------------------------------------------------------/ a--------------------/
e-------------------------------------------------------------/ e--------------------/

7 seconde stilte--4X eerste stuk-- e-------------/ -- eerste stuk 11X herhalen-- 2 seconden rust--
b-------------/ eerste stuk negen keer herhalen----
g-2-----------/ 4X HERHALEN
d---3-0-2-2---/
a-----------4-/
e-------------/
dat was hem

ProTabs promo.jpg

Onbeperkt en gratis toegang tot alle 25.000
Tabs & Chords en direct meespelen met

Artiest Liedje

...

Gitaarakkoorden stromae - Alors on dance

Dankzij de bladmuziek op deze pagina wordt het een stuk makkelijker om met de gitaar mee te spelen met Alors on dance van stromae De ProTabs van Gitaartabs worden door onze professionele gitaardocenten samengesteld. De tabs en chords zijn door leden zelf geplaatst. Deze undefined van stromae met Alors on dance is voor je geschreven door *roelof*

Tabs & Chords van stromae - Alors on dance

Bij de ProTabs delen we niet alleen de tablatuur maar ook de speelwijze van Alors on dance Met een beetje gitaar ervaring moet je dit gitaarliedje zeker kunnen spelen, maar als het niet lukt zijn we er altijd om je te helpen. Door een gratis account aan te maken krijg je niet alleen toegang tot deze tab ,akkoorden & tabs van Alors on dance maar kun je ook onbeperkt meespelen met een van de meer dan 25.000 andere tabs & chords in onze database.

Plaats opmerking

Verstuur

Beoordeel deze song

Rate UsDon’t love itNot greatGoodGreatLove itRate Us

Bedankt voor je beoordeling!