Hypnotize

Gitaarliedjes, tabs & akkoorden (chords) Hypnotize - system of a down

Songtype: Tab

arrow&v

Markeer als favoriet

Favoriet

Gemarkeerd als favoriet

Capo:

0

system of a down

system of a down

Song
Album
Categorie

Hypnotize

Downloads
298
Niveau
1
Geplaatst door
koenie201
ProTabs-promo.jpg

Intro.I
Eb------------------------------------
Bb-1-1-3-3-3-3-3-3-3-4-4-3-3-1-1-0-0-- 2x
Gb--0-0-0-0-0-0-0-0-0-0-0-0-0-0-0-0-0-
Db------------------------------------
Ab------------------------------------
Db------------------------------------

Intro.II
--------------------------------------------
-8-8-7-7-10-10-8-8-12-12-10-10-13-13-12-12--
--0-0-0-0--0--0-0-0--0--0--0--0--0--0--0--0- 2x
--------------------------------------------
--------------------------------------------
--------------------------------------------


Riff.I
-----------------------------------------------------------------------
-15-15-13-13-12-12-10-10-13-13-12-12-10-10-8-8-11-11-10-10-8-8-7-7----- 1x
---0--0--0--0--0--0--0--0--0--0--0--0--0--0-0-0--0--0--0--0-0-0-0-0----
-----------------------------------------------------------------------
-----------------------------------------------------------------------
-----------------------------------------------------------------------

Riff.II
G D FG D FG(palm muted)

Solo
--------------7---7h8-10--8-7-8--7h8p7----7---------7-8-7-7h8p7----7-------
----8------10--------------------------10---10-8-10-------------10----10---
---------------------------------------------------------------------------
---------------------------------------------------------------------------
---------------------------------------------------------------------------
---------------------------------------------------------------------------

INTRO
Intro.I x 2
Intro.II x 2
Riff.I

VERSE
[chord strikes on the syllables...G on the first 4, Eb on the 6th and so on]
G G GG Eb G G GG Eb
Why don't you...

G G GG Eb G G GG Eb
Was fashion the...

G G GG Eb G G GG Eb
They disguise...

G G GG Eb G G GG Eb
Television...

CHORUS
Riff.I
I'm just sitting...

(Riff.I continues)
And waiting...

VERSE
G G G G Eb G G GG Eb
She's scared that...

G G G G Eb G G G G Eb
Her dreams and ...

G G GG Eb G G GG Eb
Mezmerize ...

G G GG Eb G G GG Eb
Propaganda ...

CHORUS
Riff.I
I'm just sitting...

(Riff.I continues) G G GG Eb G G GG Eb
And waiting for my girl[sustain "girl" throughout]

G Eb F
I'm just sitting...

Bb Open Riff.II
And waiting........girl

BREAK
Layer 1: Riff.II x 11 [66 beats]
Layer 2: Solo x 2
drone on 8th fret on B string
Layer 3: Intro.I x 2
Intro.II x 2
CHORUS
G Eb F
I'm just sitting...

Bb Open Riff.II
And waiting........girl

GGGGG EbEbEbEbEb EbEbEbEbEb FFFFF
I'm just sitting...

BbBbBbBbBb Openx5
And waiting for my...

------------------------------------
-1-1-3-3-3-3-3-3-3-4-4-3-3-1-1h31-0-
--0-0-0-0-0-0-0-0-0-0-0-0-0-0-----0-
------------------------------------
------------------------------------
------------------------------------
girl

ProTabs promo.jpg

Onbeperkt en gratis toegang tot alle 25.000
Tabs & Chords en direct meespelen met

Artiest Liedje

...

Gitaarakkoorden system of a down - Hypnotize

Dankzij de bladmuziek op deze pagina wordt het een stuk makkelijker om met de gitaar mee te spelen met Hypnotize van system of a down De ProTabs van Gitaartabs worden door onze professionele gitaardocenten samengesteld. De tabs en chords zijn door leden zelf geplaatst. Deze undefined van system of a down met Hypnotize is voor je geschreven door koenie201

Tabs & Chords van system of a down - Hypnotize

Bij de ProTabs delen we niet alleen de tablatuur maar ook de speelwijze van Hypnotize Met een beetje gitaar ervaring moet je dit gitaarliedje zeker kunnen spelen, maar als het niet lukt zijn we er altijd om je te helpen. Door een gratis account aan te maken krijg je niet alleen toegang tot deze tab ,akkoorden & tabs van Hypnotize maar kun je ook onbeperkt meespelen met een van de meer dan 25.000 andere tabs & chords in onze database.

Plaats opmerking

Beoordeel deze song

Rate UsDon’t love itNot greatGoodGreatLove itRate Us

Bedankt voor je beoordeling!