America, fuck yeah!

Gitaarliedjes, tabs & akkoorden (chords) America, fuck yeah! - team america

Songtype: Tab

arrow&v

Markeer als favoriet

Favoriet

Gemarkeerd als favoriet

Capo:

0

team america

team america

Song
Album
Categorie

America, fuck yeah!

Downloads
209
Niveau
2
Geplaatst door
gitaartabs
ProTabs-promo.jpg

Intro
e:-----0------------0---------------
B:----1------------1----------------
G:---0------------2-----------------
D:--2------------2------------------
A:-3------------0-------------------
E:----------------------------------

Refrein
e:----------------------------------
B:----------------------------------
G:----------------------------------
D:--0---------5-7-------------------
A:--0---------5-7-------------------
E:--0---------5-7-------------------

e:----------------------------------
B:----------------------------------
G:----------------------------------
D:------------5-6-7-8---------------
A:------------5-6-7-8---------------
E:--00000000--5-6-7-8---------------

e:-----14-----14-----14-------------
B:-------15-----15-----15-----------
G:---------16-----16-----16---------
D:----------------------------------
A:----------------------------------
E:----------------------------------

e:----------------------------------
B:----------------------------------
G:----------------------------------
D:----------------------------------
A:--7-10-7-9-7-8-7-10p7-9p7-8p7-----
D:----------------------------------

tekst:
America...
America...
America, FUCK YEAH!
Coming again, to save the mother fucking day yeah,
America, FUCK YEAH!
Freedom is the only way yeah,
Terrorist your game is through cause now you have to answer too,
America, FUCK YEAH!
So lick my butt, and suck on my balls,
America, FUCK YEAH!
What you going to do when we come for you now,
it’s the dream that we all share; it’s the hope for tomorrow

FUCK YEAH!

McDonalds, FUCK YEAH!
Wal-Mart, FUCK YEAH!
The Gap, FUCK YEAH!
Baseball, FUCK YEAH!
NFL, FUCK, YEAH!
Rock and roll, FUCK YEAH!
The Internet, FUCK YEAH!
Slavery, FUCK YEAH!

FUCK YEAH!

Starbucks, FUCK YEAH!
Disney world, FUCK YEAH!
Porno, FUCK YEAH!
Valium, FUCK YEAH!
Reeboks, FUCK YEAH!
Fake Tits, FUCK YEAH!
Sushi, FUCK YEAH!
Taco Bell, FUCK YEAH!
Rodeos, FUCK YEAH!
Bed bath and beyond (Fuck yeah, Fuck yeah)

Liberty, FUCK YEAH!
White Slips, FUCK YEAH!
The Alamo, FUCK YEAH!
Band-aids, FUCK YEAH!
Las Vegas, FUCK YEAH!
Christmas, FUCK YEAH!
Immigrants, FUCK YEAH!
Popeye, FUCK YEAH!
Democrats, FUCK YEAH!
Republicans (republicans)
(fuck yeah, fuck yeah)
Sportsmanship
Books

ProTabs promo.jpg

Onbeperkt en gratis toegang tot alle 25.000
Tabs & Chords en direct meespelen met

Artiest Liedje

...

Gitaarakkoorden team america - America, fuck yeah!

Dankzij de bladmuziek op deze pagina wordt het een stuk makkelijker om met de gitaar mee te spelen met America, fuck yeah! van team america De ProTabs van Gitaartabs worden door onze professionele gitaardocenten samengesteld. De tabs en chords zijn door leden zelf geplaatst. Deze undefined van team america met America, fuck yeah! is voor je geschreven door gitaartabs

Tabs & Chords van team america - America, fuck yeah!

Bij de ProTabs delen we niet alleen de tablatuur maar ook de speelwijze van America, fuck yeah! Met een beetje gitaar ervaring moet je dit gitaarliedje zeker kunnen spelen, maar als het niet lukt zijn we er altijd om je te helpen. Door een gratis account aan te maken krijg je niet alleen toegang tot deze tab ,akkoorden & tabs van America, fuck yeah! maar kun je ook onbeperkt meespelen met een van de meer dan 25.000 andere tabs & chords in onze database.

Plaats opmerking

Beoordeel deze song

Rate UsDon’t love itNot greatGoodGreatLove itRate Us

Bedankt voor je beoordeling!