Classico

Gitaarliedjes, tabs & akkoorden (chords) Classico - tenacious d

Songtype: Tab

arrow&v

Markeer als favoriet

Favoriet

Gemarkeerd als favoriet

Capo:

0

tenacious d

tenacious d

Song
Album
Categorie

Classico

the pick of destiny

Downloads
569
Niveau
2
Geplaatst door
ProTabs-promo.jpg

Bouree In E Minor door Johan Sebastiaan Bach
e|-0--2--3--2--0----0--2----------0---------------------------------------|
B|---------------4--------0--2--4-----3--1--0-----------------------------|
G|--------------------------------------------2--0-----0--2--4--2--0------|
D|--------------------------------------------------4----------------4--2-|
A|------------------------------------------------------------------------|
E|------------------------------------------------------------------------|

Fur Elise door Beethoven
e|-7-6-7-6-7------------------------------------7-6-7-6-7------------------------------------|
B|------------7-10-8---------7--------7-8--------------------7-10-8----------7-----8-7---|
G|--------------------9-----9--------8--------------------------------------9-----9------------9-|
D|-------------------------9-------------------------------------------------------9-----------------|
A|-----------------------7-------------------------------------------------------7-------------------|
E|---------------------------------7------------7--------------------------------------7-------------|

e|----------7-7-8-7-------7-------------------------------------------------------------------------|
B|----8-10---------10-10---10-8-8-10-8-7-------------------------------------------------|
G|--9--------------------------------------------------------------------------------------------------|
D|-------------------------------------------------------9-9-8-9-8-9-8---------------------------|
A|-------------------------------------------------------------------------------------------------------|
E|-----------------------------------------------------------------------------7-6-7-6-7-6---------|

e|--------------------------------------------------------------------------------|
B|-12-11-12-11-12------------------------------------------------------|
G|---------------------------11-14-12--------------------------------------|
D|-------------------------------------------1413-----------------------------|
A|--------------------------------------------------------------------------------|
E|--------------------------------------------------------------------------------|

Eine Kleine Nachtmusik by Mozart
e|--------------------------------------------------------0----------------------------------------------|
B|--------------------7--5-2-5-2-5-2---2------------4-2------------2-----2-0-4-2-----------|
G|-----------------8---------------------3--------4-4---------4-4-3-----3---------------4-4-3--|
D|-9---9---9---9-----------------------------4-------------------------------------------------------|
A|---9---9---9-----------------------------------------------------------------------------------------|
E|--------------------------------------------------------------------------------------------------------|

e|----0-----------------------------------------------------------------------2h4-2-0-0-0-0---------------|
B|-2--------------------------------------------------4-4-2h4p2h4-4--------------------4-4-4-4------|
G|------3-4-4-3h4p3h4--4-4-3h4p3h4--------------------------------------------------------------|
D|-----------------------------------------------------------------------------------------------------------------|
A|-----------------------------------------------------------------------------------------------------------------|
E|-----------------------------------------------------------------------------------------------------------------|

e|------------------------------------------------------------------------------------------------------|
B|-4-4-4-4-2-2-2-2-0-----0--------------------------------------------------------------------|
G|----------------------------1-3---------------------------------------6-8-10-11----10------|
D|----------------------------------------------------------------------9----------------11----11-|
A|-----------------------------------------------------------------------------------------------------|
E|-----------------------------------------------------------------------------------------------------|

e|-------------------------------------------------------------------------|
B|-------------------------------------------------------------------------|
G|-10----11----10----10----11-11-11-11-10-10-10-10-10-10-10-11-11-11-------|
D|----11----11----11----11-11-11-11-11-11-11-11-11-11-11-11-11-11-11-------|
A|-------------------------------------------------------------------------|
E|-------------------------------------------------------------------------|

(tekst)
Can’t you see he’s the man
Let me hear you applaud
He is more than a man
He's a shiny golden god

If you think its time to fucking rock
And fucking roll
Out of control
Well then you know you've got to rock the block
You fucking suck
My fucking cock

Cause when you rule
You fucking school
All of the fools
Out of there jewels
Cause if you think it’s time to
If you think it’s time to
If you think it’s time to fucking rooooock

He is going to kick your fucking ass
And you know his name is Kyle Gass
Rocking
And fucking rolling
And fucking rocking
And fucking rolling
And fucking.....

ProTabs promo.jpg

Onbeperkt en gratis toegang tot alle 25.000
Tabs & Chords en direct meespelen met

Artiest Liedje

...

Gitaarakkoorden tenacious d - Classico

Dankzij de bladmuziek op deze pagina wordt het een stuk makkelijker om met de gitaar mee te spelen met Classico van tenacious d De ProTabs van Gitaartabs worden door onze professionele gitaardocenten samengesteld. De tabs en chords zijn door leden zelf geplaatst. Deze undefined van tenacious d met Classico is voor je geschreven door undefined

Tabs & Chords van tenacious d - Classico

Bij de ProTabs delen we niet alleen de tablatuur maar ook de speelwijze van Classico Met een beetje gitaar ervaring moet je dit gitaarliedje zeker kunnen spelen, maar als het niet lukt zijn we er altijd om je te helpen. Door een gratis account aan te maken krijg je niet alleen toegang tot deze tab ,akkoorden & tabs van Classico maar kun je ook onbeperkt meespelen met een van de meer dan 25.000 andere tabs & chords in onze database.

Plaats opmerking

Beoordeel deze song

Rate UsDon’t love itNot greatGoodGreatLove itRate Us

Bedankt voor je beoordeling!