Kielbasa sausage

Gitaarliedjes, tabs & akkoorden (chords) Kielbasa sausage - tenacious d

Songtype: Tab

arrow&v

Markeer als favoriet

Favoriet

Gemarkeerd als favoriet

Capo:

0

tenacious d

tenacious d

Song
Album
Categorie

Kielbasa sausage

Downloads
673
Niveau
2
Geplaatst door
gitaartabs
ProTabs-promo.jpg

------------------------------------|----------------------------|-----------------------------|
------------------------------------|-----1-----1----------------|-----------------------------|
-----------3b--0-0-3b-0-------------|--2--0-----0-----0--0---0---|--------3b--0-3b-0-----------|
-----------0----------0---------0-0-|--3--3-----2-----0--0h2-0-0-|---------0-------0--0----0-0-|
--------------------------------0-0-|--3--3--3--3--3-------------|-------------------------0-0-|
--3--3------------------------------|----------------------------|--3--3-----------------------|



-----------------------|-----------------------------|---------------------------|
------1------1---------|-----------------------------|-----1-----1---------------|
--2--0------0----------|--------3b--0-3b-0-----------|--2--0-----0-----0--0---0--|
--3--3--0-0-2----------|--------0--------0--0----0-0-|--3--3-----2-----0--0h2-0--|
--3--3--3-3-3----------|-------------------------0-0-|--3--3--3--3--3------------|
-----------------------|--3--3-----------------------|---------------------------|


Eerste couplet

I love you baby
---------------------------|------------------|-----------------------------|
---------------------------|-----1------1-----|-----------------------------|
---------------------------|--2--0------0-----|--------3b--0-3b-0-----------|
------------------------0--|--3--3--0-0-2-----|---------0-------0--0----0-0-|
-----2--2h3-2--0--2-----0--|--3--3--3-3-3-----|-------------------------0-0-|
--3------------------3-----|------------------|--3--3-----------------------|


but all I can think about is Kielbasa Sausage Your buttcheeks is warm
---------------------------|------------------------------|-----------------------|
-----1-----1---------------|------------------------------|-----1------1----------|
--2--0-----0-----0--0---0--|---------3b--0-3b-0-----------|--2--0------0----------|
--3--3-----2-----0--0h2-0--|---------0--------0--0----0-0-|--3--3--0-0-2----------|
--3--3--3--3--3------------|--------------------------0-0-|--3--3--3-3-3----------|
---------------------------|--3--3------------------------|-----------------------|


I check my dipstick You need lubrication honey My Kielbasa Sausage has just got to perform
-----------------------------|---------------------------|---------------------------|
-----------------------------|-----1-----1---------------|---------------------------|
--------3b--0-3b-0-----------|--2--0-----0-----0--0---0--|---------------------------|
--------0--------0--0----0-0-|--3--3-----2-----0--0h2-0--|------------------------0--|
-------------------------0-0-|--3--3--3--3--3------------|-----2--2h3-2--0--2-----0--|
--3--3-----------------------|---------------------------|--3-----------------3------|


Now get it on [Staccato these notes]
------------------|----------------------------|------------------------------------------------|
-----1------1-----|--11---11---11---11---11----|------------------------------------------------|
--2--0------0-----|--12---12---12---12---12----|--14--12--10--9h10p9h10p9-----------------------|
--3--3--0-0-2-----|----------------------------|---------------------------------10--8h10p8-----|
--3--3--3-3-3-----|----------------------------|--------------------------------------------10--|
------------------|----------------------------|------------------------------------------------|


Tweede couplet

I see you walking
-----------------------------------|-----------------------|------------------------------|
-----------------------------------|-----------------------|------------------------------|
------------------9b---------------|-----------------------|---------3b--0-3b-0-----------|
--------------8-------------8--10--|----12--10--8r---------|---------0--------0--0----0-0-|
----8h10-----------8h10------------|-----------------------|--------------------------0-0-|
-----------------------------------|-----------------------|--3--3------------------------|


but all I can think about is Dianetics Your buttcheeks is warm
---------------------------|------------------------------|-----------------------|
------1-----1--------------|------------------------------|-----1------1----------|
--2--0-----0-----0--0---0--|--------3b--0-3b-0------------|--2--0------0----------|
--3--3-----2-----0--0h2-0--|--------0---------0--0----0-0-|--3--3--0-0-2----------|
--3--3--3--3--3------------|--------------------------0-0-|--3--3--3-3-3----------|
---------------------------|--3--3------------------------|-----------------------|


I check my dipstick You need lubrication honey! My Kielbasa Sausage has just got to perform
-----------------------------|---------------------------|----------------------------|
-----------------------------|-----1-----1---------------|----------------------------|
--------3b--0-3b-0-----------|--2--0-----0-----0---0--0--|----------------------------|
--------0--------0--0----0-0-|--3--3-----2-----0--0h2-0--|-------------------------0--|
-------------------------0-0-|--3--3--3--3--3------------|------2--2h3-2--0--2-----0--|
--3--3-----------------------|---------------------------|--3-------------------3-----|


Now I've been set loose-ah Right in your caboose...Now fucking get it on!
I'm shooting my juice-ah
----------------------|----------------------|----------------------|---------------------|
-----1-----1----------|-----1-----1----------|-----1-----1----------|-----1-----1---------|
--2--0-----0----------|--2--0-----0----------|--2--0-----0----------|--2--0-----0---------|
--3--3--0--2----------|--3--3--0--2----------|--3--3--0--2----------|--3--3--0--2---------|
--3--3--3--3----------|--3--3--3--3----------|--3--3--3--3----------|--3--3--3--3---------|
----------------------|----------------------|----------------------|---------------------|


[Staccato these notes] Now get it on
----------------------------------|-------------------------------------|
--11--11--11--11--11--11--11--11--|-------------------------------------|
--12--12--12--12--12--12--12--12--|--14--12--10--9h10p9-----------------|
----------------------------------|----------------------10--8h10p8-----|
----------------------------------|---------------------------------10--|
----------------------------------|-------------------------------------|


Get it on
---------------------------------|--------------------|--------------------------|
---------------------------------|--------------------|--------------------------|
-----------------9r--------------|--------------------|--------------------------|
-------------8-----------8h10p8--|--------------------|--------------------------|
----8h10---------10--------------|--8--8--------------|--3--3--3--2--2--2--2--0--|
---------------------------------|---------11--8------|--3--3--3--3--3--3--3-----|

ProTabs promo.jpg

Onbeperkt en gratis toegang tot alle 25.000
Tabs & Chords en direct meespelen met

Artiest Liedje

...

Gitaarakkoorden tenacious d - Kielbasa sausage

Dankzij de bladmuziek op deze pagina wordt het een stuk makkelijker om met de gitaar mee te spelen met Kielbasa sausage van tenacious d De ProTabs van Gitaartabs worden door onze professionele gitaardocenten samengesteld. De tabs en chords zijn door leden zelf geplaatst. Deze undefined van tenacious d met Kielbasa sausage is voor je geschreven door gitaartabs

Tabs & Chords van tenacious d - Kielbasa sausage

Bij de ProTabs delen we niet alleen de tablatuur maar ook de speelwijze van Kielbasa sausage Met een beetje gitaar ervaring moet je dit gitaarliedje zeker kunnen spelen, maar als het niet lukt zijn we er altijd om je te helpen. Door een gratis account aan te maken krijg je niet alleen toegang tot deze tab ,akkoorden & tabs van Kielbasa sausage maar kun je ook onbeperkt meespelen met een van de meer dan 25.000 andere tabs & chords in onze database.

Plaats opmerking

Beoordeel deze song

Rate UsDon’t love itNot greatGoodGreatLove itRate Us

Bedankt voor je beoordeling!