Lee

Gitaarliedjes, tabs & akkoorden (chords) Lee - tenacious d

Songtype: Tab

arrow&v

Markeer als favoriet

Favoriet

Gemarkeerd als favoriet

Capo:

0

tenacious d

tenacious d

Song
Album
Categorie

Lee

Downloads
295
Niveau
1

Geplaatst door
ProTabs-promo.jpg

e|------------------------------------------------------------------------------------------------|
B|------------------------------------------------------------------------------------------------|
G|-----7---XX---5---XX---3---XX---5--77777777--55555555--33333333--55555555-----------------------|
D|-----7---XX---5---XX---3---XX---5--77777777--55555555--33333333--55555555-----------------------|
A|-----5---XX---3---XX---1---XX---3--55555555--33333333--11111111--33333333-----------------------|
E|---------XX-------XX-------XX-------------------------------------------------------------------|

(speel 3 keer)
e|-------------------------------------------------|
B|-------------------------------------------------|
G|-----77777777--55555555--33333333--55555555------|
D|-----77777777--55555555--33333333--55555555------|
A|-----55555555--33333333--11111111--33333333------|
E|---------------------------------------------3/5-|


(speel 2 keer)
e|---------------------------------------------------------------------------------|
B|---------------------------------------------------------------------------------|
G|--7----7-7---7-7-7----5----5-5---5-5-5----3----3-3---3-3-3----5----5-5---5-5-5---|
D|--7----7-7---7-7-7----5----5-5---5-5-5----3----3-3---3-3-3----5----5-5---5-5-5---|
A|--5----5-5---5-5-5----3----3-3---3-3-3----1----1-1---1-1-1----3----3-3---3-3-3---|
E|---------------------------------------------------------------------------------|



e|----------------------------------------------------------------------------------------------------------|
B|----------------------------------------------------------------------------------------------------------|
G|----7-7-7-7---5-5-5-5---3-3-3-3---5-5-5-5---------77777777---55555555---33333333---55555555----7/---------|
D|----7-7-7-7---5-5-5-5---3-3-3-3---5-5-5-5---------77777777---55555555---33333333---55555555----5/---------|
A|----5-5-5-5---3-3-3-3---1-1-1-1---3-3-3-3---------55555555---33333333---11111111---33333333----5/---------|
E|----------------------------------------------------------------------------------------------------------|

Lee lee lee lee
Lee lee lee lee lee lee lee lee lee lee
were talking fucking lee
I had a friend named lee
he cast a spell
a spell on me
if me, and lee and kg could be three
flying free, tenaciously
skinny dipping in the sea of lee
id propose on bended knee
to ee Lee Lee, Lee Lee Lee,
Lee Lee, Lee Lee Lee, Lee Lee Lee Lee Lee,
Le-Lut-Le-Le-Le-Lee Lee Lee,
Le-Lut-Le-Le-Le-Lee Lee,
If me, and lee, and kg
could be three
plant a tree, (plant a tree)
just for lee, (just for Lee)
Just for Lee, (Lee)
Just for Lee!
Lee, Lee, Lee: ["Psycho" Knife Song style, 16X]
Leeee, Leeee, Leeee:
LEE!

ProTabs promo.jpg

Onbeperkt en gratis toegang tot alle 25.000
Tabs & Chords en direct meespelen met

Artiest Liedje

...

Gitaarakkoorden tenacious d - Lee

Dankzij de bladmuziek op deze pagina wordt het een stuk makkelijker om met de gitaar mee te spelen met Lee van tenacious d De ProTabs van Gitaartabs worden door onze professionele gitaardocenten samengesteld. De tabs en chords zijn door leden zelf geplaatst. Deze undefined van tenacious d met Lee is voor je geschreven door undefined

Tabs & Chords van tenacious d - Lee

Bij de ProTabs delen we niet alleen de tablatuur maar ook de speelwijze van Lee Met een beetje gitaar ervaring moet je dit gitaarliedje zeker kunnen spelen, maar als het niet lukt zijn we er altijd om je te helpen. Door een gratis account aan te maken krijg je niet alleen toegang tot deze tab ,akkoorden & tabs van Lee maar kun je ook onbeperkt meespelen met een van de meer dan 25.000 andere tabs & chords in onze database.

Plaats opmerking

Verstuur

Beoordeel deze song

Rate UsDon’t love itNot greatGoodGreatLove itRate Us

Bedankt voor je beoordeling!