Tenacious d time

Gitaarliedjes, tabs & akkoorden (chords) tenacious d time - tenacious d

Songtype: Tab

arrow&v

Markeer als favoriet

Favoriet

Gemarkeerd als favoriet

Capo:

0

tenacious d

tenacious d

Song
Album
Categorie

tenacious d time

Downloads
549
Niveau
2
Geplaatst door
gitaartabs
ProTabs-promo.jpg

e|---------------------------------------------------------------------|
B|---------------------------------------------------------------------|
G|-----------------------------------3-3-3-2-2-2-h-3-p-2-0--|
D|-----------------------------------3-3-3-3-3-3---3---3-3----|
A|--3-3-3-2-2-2-h-3-p-2-0-----------------------------------|
E|--3-3-3-3-3-3---3---3-3------------------------------------|

e|-------------------------------------|
B|-------------------------------------|
G|-------------------------------------|
D|--3-3-3-3-3-3--5-5-5-5-5--|
A|--3-3-3-3-3-3--5-5-5-5-5--|
E|--1-1-1-1-1-1--3-3-3-3-3--|

e|-------------------------------------------------|
B|-------------------------------------------------|
G|--5--5--x-x--9--9---------------------------|
D|--5--5--x-x--9--9---3--3--x-x--5--5----|
A|--3--3--x-x--7--7---3--3--x-x--5--5----|
E|-------------------------1--1--x-x--3--3----|

All the ladies in the house say yeah (yeah)
Come on, motherfuckers, say a prayer (prayer)
When you fight, you gotst to fight fair
You motherfucker, ho, you motherfucker
You know what time it is...

Tenacious D time, you motherfucker go
Fuck yeah

ProTabs promo.jpg

Onbeperkt en gratis toegang tot alle 25.000
Tabs & Chords en direct meespelen met

Artiest Liedje

...

Gitaarakkoorden tenacious d - tenacious d time

Dankzij de bladmuziek op deze pagina wordt het een stuk makkelijker om met de gitaar mee te spelen met tenacious d time van tenacious d De ProTabs van Gitaartabs worden door onze professionele gitaardocenten samengesteld. De tabs en chords zijn door leden zelf geplaatst. Deze undefined van tenacious d met tenacious d time is voor je geschreven door gitaartabs

Tabs & Chords van tenacious d - tenacious d time

Bij de ProTabs delen we niet alleen de tablatuur maar ook de speelwijze van tenacious d time Met een beetje gitaar ervaring moet je dit gitaarliedje zeker kunnen spelen, maar als het niet lukt zijn we er altijd om je te helpen. Door een gratis account aan te maken krijg je niet alleen toegang tot deze tab ,akkoorden & tabs van tenacious d time maar kun je ook onbeperkt meespelen met een van de meer dan 25.000 andere tabs & chords in onze database.

Plaats opmerking

Beoordeel deze song

Rate UsDon’t love itNot greatGoodGreatLove itRate Us

Bedankt voor je beoordeling!