Daytripper

Gitaarliedjes, tabs & akkoorden (chords) Daytripper - the beatles

Songtype: Tab

arrow&v

Markeer als favoriet

Favoriet

Gemarkeerd als favoriet

Capo:

0

the beatles

the beatles

Song
Album
Categorie

Daytripper

Downloads
3047
Niveau
2

Geplaatst door
fender
ProTabs-promo.jpg

-----------------------------------------------------------------------------------------------
-----------------------------------------------------------------------------------------------
-----------------------------------------------------------------------------------------------
------------------------------------2-----0----------------4----------------0---2---------
----------------------------2--------------------2------------------2-----------------------
----0----3----4-----------------------------------------------------------------------------

Daarna de akkoorden: F#7 - A - G# - C# - B

F#7: 2-4-2-3-2-2
A: 5-7-7-6-5-5
G#: 4-6-6-5-4-4
C#: 4-4-6-6-6-4
B: 2-2-4-4-4-2

-----------------------------------------------------------------------------------------------
--------------------------------------------------------2-------------------------------------
-------------------------------4-----2---------------------------------2-------4-----------
----------0----1-----4---------------------4----------------4-----------------------------
---2------------------------------------------------------------------------------------------
-----------------------------------------------------------------------------------------------

Got a good reason
for taking the easy way out
Got a good reason
for taking the easy way out now
She was a day tripper
One way ticket, yeah
It took me so long to find out
and I found out

She's a big teaser
She took me half the way there
She's a big teaser
She took me half the way there, now
She was a day tripper
One way ticket, yeah
It took me so long to find out
and I found out
Ah, ah, ah, ah, ah, ah

Tried to please her
She only played one night stand
Tried to please her
She only played one night stand, now
She was a day tripper
One way ticket, yeah
It took me so long to find out
and I found out

Day tripper, day tripper, yeah

ProTabs promo.jpg

Onbeperkt en gratis toegang tot alle 25.000
Tabs & Chords en direct meespelen met

Artiest Liedje

...

Gitaarakkoorden the beatles - Daytripper

Dankzij de bladmuziek op deze pagina wordt het een stuk makkelijker om met de gitaar mee te spelen met Daytripper van the beatles De ProTabs van Gitaartabs worden door onze professionele gitaardocenten samengesteld. De tabs en chords zijn door leden zelf geplaatst. Deze undefined van the beatles met Daytripper is voor je geschreven door fender

Tabs & Chords van the beatles - Daytripper

Bij de ProTabs delen we niet alleen de tablatuur maar ook de speelwijze van Daytripper Met een beetje gitaar ervaring moet je dit gitaarliedje zeker kunnen spelen, maar als het niet lukt zijn we er altijd om je te helpen. Door een gratis account aan te maken krijg je niet alleen toegang tot deze tab ,akkoorden & tabs van Daytripper maar kun je ook onbeperkt meespelen met een van de meer dan 25.000 andere tabs & chords in onze database.

Plaats opmerking

Verstuur

Beoordeel deze song

Rate UsDon’t love itNot greatGoodGreatLove itRate Us

Bedankt voor je beoordeling!