Lonely boy

Gitaarliedjes, tabs & akkoorden (chords) Lonely boy - the black keys

Songtype: Tab

arrow&v

Markeer als favoriet

Favoriet

Gemarkeerd als favoriet

Capo:

0

the black keys

the black keys

Song
Album
Categorie

Lonely boy

el camino

Downloads
1223
Niveau
1
Geplaatst door
dare-devil
ProTabs-promo.jpg

1e noot is een open E en dan lang aanhouden
daarna verder dit rifje.

e -----------------------------------------
B -----------------------------------------
G -----------------------------------------
D --------------------------b2------------
A -----------------------------------------
E -0-0-0-0-3-0-0-0-0-------------------

Dit speel je 4x

voor akoestische gitaar band D2

voor electrische gitaar gebruik een whammy bar
of whammy pendaal.b2 dan niet spelen.


e -0-0-0---------------------------------
B --------3-------------------------------
G -----------2-0-2-0-0-2-0-------------
D -----------------------------2-0-2-----
A -----------------------------------------
E -----------------------------------------

Dit speel je 2x


e -0-0-0-0-------------------------------
B -----------------------------------------
G -----------------------------------------
D------------------------------------------
A -----------------------------------------
E --------------0-3-0---------------------

Dit speel je ook 4X


De accoorden die gebruikt worden zijn: E,G en A
en worden allen omlaag aangeslagen.


E accoord speel je 4X

G accoord speel je 4X

A accoord speel je 4X


Daarna speel je het laatste rifje.

of je speel E accoord 4x en daarna onderstaand,
of combinaties hiervan.

e -----------------------------------------
B -----------------------------------------
D -----------------------------------------
G --6-6-6-6----8-8-8-8-----------------
A --6-6-6-6----8-8-8-8-----------------
E --4-4-4-4----6-6-6-6-----------------


Songtekst:

Well I’m so above you and it’s fine to see, but I came to love you, anyway
So you tore my heart out and I don’t mind bleeding
Any old time to keep me waiting, waiting, waiting

Oh, oh-oh I got a love that keeps me waiting
Oh, oh-oh I got a love that keeps me waiting
I’m a lonely boy, I’m a lonely boy
Oh, oh-oh I got a love that keeps me waiting

Well your mama kept you, but your daddy left you
And I should’ve done you just the same, but I came to love you
Any old time you keep me waiting, waiting, waiting

Oh, oh-oh I got a love that keeps me waiting
Oh, oh-oh I got a love that keeps me waiting
I’m a lonely boy, I’m a lonely boy
Oh, oh-oh I got a love that keeps me waiting

Oh, oh-oh I got a love that keeps me waiting
Oh, oh-oh I got a love that keeps me waiting
I’m a lonely boy, I’m a lonely boy
Oh, oh-oh I got a love that keeps me waiting


ProTabs promo.jpg

Onbeperkt en gratis toegang tot alle 25.000
Tabs & Chords en direct meespelen met

Artiest Liedje

...

Gitaarakkoorden the black keys - Lonely boy

Dankzij de bladmuziek op deze pagina wordt het een stuk makkelijker om met de gitaar mee te spelen met Lonely boy van the black keys De ProTabs van Gitaartabs worden door onze professionele gitaardocenten samengesteld. De tabs en chords zijn door leden zelf geplaatst. Deze undefined van the black keys met Lonely boy is voor je geschreven door dare-devil

Tabs & Chords van the black keys - Lonely boy

Bij de ProTabs delen we niet alleen de tablatuur maar ook de speelwijze van Lonely boy Met een beetje gitaar ervaring moet je dit gitaarliedje zeker kunnen spelen, maar als het niet lukt zijn we er altijd om je te helpen. Door een gratis account aan te maken krijg je niet alleen toegang tot deze tab ,akkoorden & tabs van Lonely boy maar kun je ook onbeperkt meespelen met een van de meer dan 25.000 andere tabs & chords in onze database.

Plaats opmerking

Beoordeel deze song

Rate UsDon’t love itNot greatGoodGreatLove itRate Us

Bedankt voor je beoordeling!