top of page

Online gitaarles en liedjes

Come as you are - Nirvana - Gitaar Tabs & Gitaarakkoorden

Dit nummer komt met Tabs en Chords


Come As You Are (2) 

Artiest: Nirvana 
Album: Nevermind 
Capo:  
Tuning: E-A-D-G-B-E 
uitgezocht door: fab 

4/4 

Em : 0-2-2-0-0-0 
D : x-x-0-2-3-2 
G : 3-5-5-4-3-3 
Am : 5-7-7-5-5-5 
C : x-3-2-0-1-0 

Chord versie, tab staat onderaan!



Intro: 
|Em |D |Em |D | 
|Em |D |Em |D | 

Em D Em 
Come as you are, as you were, 
D Em 
As I want you to be 
D Em D Em 
As a friend, as a friend, as an old enemy. 
D Em 
Take your time, hurry up 
D Em 
The choice is yours, don't be late. 
D Em D Em G 
Take a rest, as a friend, as an old memoriiiia 
Em G Em G Em G 
Memoriiiia, memoriiiia, memoriiiia 

Em D Em 
Come doused in mud, soaked in bleach 
D Em 
As I want you to be 
D Em D Em G 
As a trend, as a friend, as an old memoriiiia 
Em G Em G Em G 
Memoriiiia, memoriiiia, memoriiiia 

Am C Am C 
And I swear that I don't have a gun 
Am C 
No I don't have a gun 
Am C 
No I don't have a gun 

Solo: 
|Em |D |Em |D | 
|Em |D |Em |D | 4 x 

Em G Em G Em G 
Memoriiiia, memoriiiia, memoriiiia 
Em G 
Memoriiiia (and I don't have a gun) 

Am C Am C 
And I swear that I don't have a gun 
Am C 
No I don't have a gun 
Am C 
No I don't have a gun 
Am C 
No I don't have a gun 
Am C 
No I don't have a gun 

Outro: 
|Em |D |Em |D | 
|Em |D |Em |D | 

Heb je nog vragen? mail me: fabianpruissen..

Veel plezier!


=====================================================================


Tab versie: 

COME AS YOU ARE 
As recorded by Nirvana 
(From the 1991 Album NEVERMIND) 

Gtr I (D G C F A D) - 'clean electric' 
Gtr II (D G C F A D) - 'dist electric' 

Intro - Verse 
Q=120 
4/4 

E E E Q E E E Q. Q. E E E E E E E E E E 4x 
|----------0-----||-------2--------|-------------------|| 
|-------0--0-0-0-||o------2----2---|------------------o|| 
|-------1--1-1-1-||-------4----4-0-|-2-2-2-2-2-2-2-2---|| 
|-------2----2-2-||--4---------4-0-|-2---2---2---2-----|| 
|---2------------||o---------------|-0---0---0---0----o|| 
|-----0----------||--2-------------|-------------------|| 


Q E E E E E E E E E Q E E E Q E E E E E E 3x 
|----------------||-----------------|------------------|| 
|----------------||o----------------|-----------------o|| 
|----------------||-----------------|------------------|| 
|----------------||-----------------|------------------|| 
|----0---0-------||o---2------2-----|----0---0--------o|| 
|-2----2---2-2-1-||--0---0-0----0-1-|-2----2---2-2-1---|| 

Chorus 
Gtr I 
Q E Q Q. Q E Q E Q Q E Q Q. Q E Q E Q 
|----------7----|--------------|---------7-----|---------------| 
|----------7----|--------------|---------7-----|---------------| 
|---------------|-7--7-7--7-7--|---------------|-7--7-7--7-7---| 
|-9--9-9--------|-7--7-7--7-7--|-9--9-9--------|-7--7-7--7-7---| 
|-9--9-9--------|-5--5-5--5-5--|-9--9-9--------|-5--5-5--5-5---| 
|-7--7-7--------|--------------|-7--7-7--------|---------------| 
| 
| Gtr II 
| H E Q. Q E Q E Q Q E Q E Q Q E Q E Q 
|---------------|--------------|---------------|---------------| 
|---------------|--------------|---------------|---------------| 
|-4------4-4----|-7--7-7--7-7--|-4--4-4--4--4--|-7--7-7--7-7---| 
|-4------4-4----|-7--7-7--7-7--|-4--4-4--4--4--|-7--7-7--7-7---| 
|-2------2-2----|-5--5-5--5-5--|-2--2-2--2--2--|-5--5-5--5-5---| 
|---------------|--------------|---------------|---------------| 

Guitar Solo 
Q E E E E E E E E E Q E E E 
||---------------------|---------------------| 
||o--------------------|---------------------| 
||---------------------|---------------------| 
||---------------------|---------------------| 
||o-----0----0---------|----2----------2-----| 
||--2-----2------2-2-1-|-0----0-0--------0-1-| 
| 
| Q. E +E Q E Q. E +E Q E 
||---------------------|---------------------| 
||o--------------------|---------------------| 
||--6-----9-(9)-11S==6-|-6------9-(9)-11S==6-| 
||---------------------|---------------------| 
||o--------------------|---------------------| 
||---------------------|---------------------| 


Q E E E E E E E E E Q E E E 4x 
|----------------------|---------------------------|| 
|----------------------|--------------------------o|| 
|----------------------|---------------------------|| 
|----------------------|---------------------------|| 
|-----0----0-----------|-------2---------2--------o|| 
|-2-----2------2--2--1-|--0------0--0------0-1-----|| 
| 
| Q. E +E E E E Q. E E E E. S 4x 
|----------------------|---------------------------|| 
|--------------------0-|--------------------------o|| 
|-6-----9-(9)-11-11-11-|-11b13-----11-11-9-9S==6---|| 
|----------------------|---------------------------|| 
|----------------------|--------------------------o|| 
|----------------------|---------------------------|| 


Chorus 
Gtr I 
Q E Q Q. Q E Q E Q Q E Q E Q E E Q E E E E 
|----------7----|-5--5-5--5-5--|------7-------|-5-5-5---5-5-5-5--| 
|----7-----7----|-5--5-5--5-5--|------7--9-7--|-5-5-5---5-5-5-5--| 
|------9--------|-7--7-7--7-7--|----7----9-7--|-7-7-7---7-7-7-7--| 
|-9-------------|-7--7-7--7-7--|-9------------|-7-7-7---7-7-7-7--| 
|-9-------------|-5--5-5--5-5--|-9------------|-5-5-5---5-5-5-5--| 
|-7-------------|--------------|-7------------|------------------| 
| 
| Gtr II 
| H E Q. Q E Q E Q Q E Q E Q Q E Q E Q 
|---------------|--------------|--------------|------------------| 
|---------------|--------------|--------------|------------------| 
|---------------|-7--7-7--7-7--|--------------|-7---7-7---7-7----| 
|-9------9-9----|-7--7-7--7-7--|-9--9-9--9-9--|-7---7-7---7-7----| 
|-9------9-9----|-5--5-5--5-5--|-9--9-9--9-9--|-5---5-5---5-5----| 
|-7------7-7----|--------------|-7--7-7--7-7--|------------------| 


1.,2.,3. 4. 
Q E Q. E E E E Q E E E E 4x E E E Q E E E 
||-------7-----7---|-5-5-5---5-5-5-5--||-5-5-5-5----------| 
||o----7-7-----7-7-|-5-5-5---5-5-5-5-o||-5-5-5-5----------| 
||-----7-------7-7-|-7-7-7---7-7-7-7--||-7-7-7-7----------| 
||--9--9-------9-9-|-7-7-7---7-7-7-7--||-7-7-7-7----------| 
||o-9--------------|-5-5-5---5-5-5-5-o||-5-5-5-5----------| 
||--7--------------|------------------||----------0-0--1--| 
| 
| Q E Q E Q Q E Q E Q 4x E E E H +E 
||-----------------|------------------||------------------| 
||o----------------|-----------------o||------------------| 
||-----------------|-7---7-7---7-7----||-7-7-7-7------(7)-| 
||--9--9-9---9-9---|-7---7-7---7-7----||-7-7-7-7------(7)-| 
||o-9--9-9---9-9---|-5---5-5---5-5---o||-5-5-5-5------(5)-| 
||--7--7-7---7-7---|------------------||------------------| 


Outro 
Gtr I 
Q E E E E E E E E E Q E E E 4x W 
||-----------------|-----------------||-0----*| 
||o----------------|----------------o||-0----*| 
||-----------------|-----------------||-0----*| 
||-----------------|-----------------||-4----*| 
||o----0---0-------|---2------2-----o||-4----*| 
||--2----2---2-2-1-|-0---0-0----0-1--||-2----*| 

176 weergaven0 opmerkingen

Gerelateerde posts

Alles weergeven

Commenti

Valutazione 0 stelle su 5.
Non ci sono ancora valutazioni

Aggiungi una valutazione
bottom of page