• Streaming gitaar liedjes spelen
  • Leer gitaar spelen & gitaarlessen
  • 80.000 leden
Basgitaar 1/4: Toonvorming en synchroniseren

Gitaarles: Basgitaar 1/4: Toonvorming en synchroniseren

In deze les behandelen we:

  • linker- en rechterhand synchroon: linkerhand moet leidend zijn, de rechterhand doet mee. Nogmaals de chromatische ladder.
  • Hammer-on spelen.
  • Meespelen met het intro van Play that funky music.
Hammer-on oefenen:
G|----------------|--------5--h7---|5--h7-----------|----------------|
D|----------------|5--h7-----------|--------5--h7---|----------------|
A|--------5--h7---|----------------|----------------|5--h7-----------|
E|5--h7-----------|----------------|----------------|--------5--h7---|

Play that funky music:
G|--------9---7---9---------7h9---|
D|---------------------7h9--------|
A|7---7---------------------------|
E|--------------------------------|
Probeer alle lessen voor slechts 1 euro! !


Download pdf

Download : Bas Houding en Basistechniek deel 4.pdf (alleen leden)
Download : houding en techniek.pdf (alleen leden)

Download (Gebruik Media Player)

geen

Gitaarles vragen, suggesties en opmerkingen