Rescue me

Gitaarliedjes, tabs & akkoorden (chords) Rescue me - kane

Songtype: Bass-tab

arrow&v

Markeer als favoriet

Favoriet

Gemarkeerd als favoriet

Capo:

0

kane

kane

Song
Album
Categorie

Rescue me

Downloads
174
Niveau
2

Geplaatst door
gitaartabs
ProTabs-promo.jpg

Rescue me

Bass intro
G--------------------------------------------
D--------------------------------------------
A----5--8-------5--8-------5--8--------------
E-8----------8----------8----------8----6----

Guitar intro
e----------------------------------------------------
B-1-/3-/6----1-/3-/6/8\6--1-/3-/6--8\1----3h5-----1--
G---------------------------------------5------3-----
D----------------------------------------------------
A----------------------------------------------------
E----------------------------------------------------

Guitar intro (with bass notes)
e------------------------------------------------
B-3-/5-/8----3-/5-/8/10\8--3-/5-/8--10\1-/3---1--
G-0--0--0----0--0--0-0--0--0--0--0---------------
D-x--x--x----x--x--x-x--x--x--x--x---------------
A-3-/5-/8----3-/5-/8/10\8--3-/5-/8--10\1-/3---1--
E------------------------------------------------

[Intro]
C F
C F
C F
C Bb
C F
Well, is it cold where you are
C F
Is it dark or gray
C F
Oh could you please come out here
C Bb
You seem so far away

C F
Am I drifting from you
C F
Is it hard to say
C F
Could you oh please come to me
C Bb
Could you come my way

[Chorus]
Dm F Fsus4 F7
Oh would you please_______ come to me
C F C F
Why don't you stay with me
Dm F Fsus4 F7
Oh could you please_______ come to me
C F C Bb
Rescue me oh no no no no no no

C F
Does it truly matter
C F
If I'm wrong or right
C F
I got my hands towards you
C Bb
Ah would you make it right
C F
And if I, I said I did it
C F
Would you still be on my side
C F
One hand towards you
C Bb
Oh would you still____,

[Chorus]
Dm F Fsus4 F7
still make it right Oh please__ come on

C F C F
stay with me___________ yeah___________

Dm F Fsus4 F7
Oh would you please_______ come on to me
C F C Bb
Rescue me oh no no no no no yeah yeah


F F/E riff
D---------------
A-3--3--3--3--3-
E-1--0--1--0--1-

Dm Bb
So if I drown this morning, if I say what's on my mind
F F/E riff 4x
Oh don't you know I got some things to say
Dm Bb
You lead the way, don't be afraid baby
F F/E riff 4x
Oh don't you know I, I, I, hey hey hey ooohoooooooh
C (intro riff)
got some things to say
C F
So if you truly out here
C Bb
Could you come to me
C Dm F
And if I said I did it
C F
Would you still be on my side
C F
One hand towards you
C Bb Dm
Oh would you still, still make it right
Bb
Oh please come on baby
F F/E riff 4x
Oh don't you know I got some things to say
Dm Bb
You lead the way, don't be afraid baby
F F/E riff 4x
Oh don't you know I, I, I, hey hey hey ooohoooooooh
Dm Bb
You lead the way, don't be afraid baby
F F/E riff 4x
Don't you know I, you and I______________ yeah

[Solo]
G Am C F
G Am C F
G Am C F
G Am C

e-----------------
B-6/8--8--8\6--6-- 3x
G-----------------

e------------
B-8--10--13-- 1x
G------------

C F
So is it cold where you are
C F
Is it dark or gray
C F
Could you please come out here
C Bb
You seem so far away

C (intro riff)
And does it truly matter
C
If I'm wrong or say, let's say I'm right
C
So please come out here
C
Come and make it right

Come on!

G Am C F
Don't you know
G Am C F
baby baby baby yeah yeah yeah
G Am C F
oh no
G Am F
oh


Chords:

C x32010
F x33210 / 133211
Bb x13331
Dm xx0231
Fsus4 133311
F7 131211
F/E 03xxxx
G 320033
Am x02210

ProTabs promo.jpg

Onbeperkt en gratis toegang tot alle 25.000
Tabs & Chords en direct meespelen met

Artiest Liedje

...

Gitaarakkoorden kane - Rescue me

Dankzij de bladmuziek op deze pagina wordt het een stuk makkelijker om met de gitaar mee te spelen met Rescue me van kane De ProTabs van Gitaartabs worden door onze professionele gitaardocenten samengesteld. De tabs en chords zijn door leden zelf geplaatst. Deze undefined van kane met Rescue me is voor je geschreven door gitaartabs

Tabs & Chords van kane - Rescue me

Bij de ProTabs delen we niet alleen de tablatuur maar ook de speelwijze van Rescue me Met een beetje gitaar ervaring moet je dit gitaarliedje zeker kunnen spelen, maar als het niet lukt zijn we er altijd om je te helpen. Door een gratis account aan te maken krijg je niet alleen toegang tot deze bass-tab ,akkoorden & tabs van Rescue me maar kun je ook onbeperkt meespelen met een van de meer dan 25.000 andere tabs & chords in onze database.

Plaats opmerking

Verstuur

Beoordeel deze song

Rate UsDon’t love itNot greatGoodGreatLove itRate Us

Bedankt voor je beoordeling!