Ice queen

Gitaarliedjes, tabs & akkoorden (chords) Ice queen - within temptation

Songtype: Bass-tab

arrow&v

Markeer als favoriet

Favoriet

Gemarkeerd als favoriet

Capo:

0

within temptation

within temptation

Song
Album
Categorie

Ice queen

Downloads
471
Niveau
2

Geplaatst door
gitaartabs
ProTabs-promo.jpg

Ice queen

Gebruikte accoorden:

G#5 466xxx
E5 x799xx
C#5 x466xx
Bb5 x133xx
B5 x244xx
F#5 244xxx
G#m 466544
F# 244322
C#m 446654


Riff1 (Keyboard strings)
e-----------------------------
B-----------------------------
G-----------------------------
D-6~~~~--8~~~~--9~~~~--6~~~~--
A-----------------------------
E(4)----(6)----(7)----(4)-----

Riff2a (Keyboard strings)
e------------------------------
B------------------------------
G---------------4~~~~--6~~~~---
D-6~~~~--4~~~~-----------------
A--------------(2)----(4)------
E(4)----(2)--------------------

Riff2b (Keyboard strings)
e----------------------2-------
B----------------------2-------
G---------------4~~~~--3-----------
D-6~~~~--4~~~~---------4-------
A--------------(2)-------------
E(4)----(2)-----------(2)------

[Intro1]
Riff1
Riff1 (+piano)
Riff2a
Aha Aha Aha Aha
Riff2b (volume up)
Aha Aha Aha

Riff3 Guitar distortion
e----------------------------------------------------
B----------------------------------------------------
G----------------------------------------------3-----
D--------------------------6-6-6-----------4---4-----
A-6-6-6---2-2-2-4--6-6-6---4-4-4---6-6-6---2---1-----
E-4-4-4---0-0-0-2--4-4-4-----------4-4-4-------------
G#5 E5 f# G#5 C#5 G#5 B5 B5/Bb

[Intro2]
G#5 E5 G#5 C#5
Aha Aha
G#5 E5 B5 Bb5
G#5 E5 G#5 C#5 (&lead1)
Aha Aha
G#5 E5 B5 Bb5

B5 / / / / Bb5 G#5

Lead1 (Intro ‘horn’)
e----------------------------------------------------------------------
B-------------14-------------------------------------------------------
G-13~~~~~~~~~----11~~~~~~~~~-------------------------------------------
D------------------------------13~~~~--11~~~~~-9~~~~~~~~~~~~-9-8-6-----
A----------------------------------------------------------------------
E----------------------------------------------------------------------

Riff4 Verse (Palm mute power chords)
e--------------------------------------------
B--------------------------------------------
G--------------------------------------------
D---------------------------------2-1--------
A-6666-2222-2~~--4444-6666-2222-2-----4-2----
E-4444-0000------2222-4444-0000--------------

G#5 E5 B5 F#5
When leaves have fallen and skies turned into grey
G#5 E5 B5 F#5
The night keeps on closing in on the day
G#5 E5 B5 F#5
A nightingale sings his song of farewell
G#5 E5 B5 F#5
You better hide for her freezing hell

[Pre-chorus]
C#5 / / / G#5 /// /
On cold wings - she's coming
C#5 / / / G#5 /// /
You better - keep moving
C#5 / / / G#5 /// / B5 F#5
For warmth, you'll be longing hey___ ea_yeah___
C#5 / / / G#5 /// /
Come on! Just feel it!
C#5 / / / G#5 /// /
Don't you? see it ?
E5 F#5
You better believe__________________


G#5 E5 B5 F#5
When she embraces your heart turns to stone
G#5 E5 B5 F#5
She comes at night when you are all alone
G#5 E5 B5 F#5
And when she whispers your blood shall run cold
G#5 E5 B5 F#5
You better hide before she finds you

[Chorus] (Quiet piano / strings part)
E C#m G#m F#
Whenever she is raging She takes all life away
E B F# G#m
Haven't you seen ? Haven't you seen ? The ruins of our__ world_____
E C#m G#m F#
Whenever she is raging She takes all life away
E B F# G#m (volume up)
Haven't you seen ? Haven't you seen ? The ruins of OUR__ WORLD_____

[Repeat Intro2]

G#5 E5 B5 F#5
She covers the earth with a breathtaking cloak
G#5 E5 B5 F#5
The sun awakes and melts it away
G#5 E5 B5 F#5
The world now opens its eyes and sees
G#5 E5 B5 F#5
The dawning of a new day

[Pre-chorus]
C#5 / / / G#5 /// /
On cold wings - she's coming
C#5 / / / G#5 /// /
You better - keep moving
C#5 / / / G#5 /// / B5 F#5
For warmth, you'll be longing hey___ ea_yeah___
C#5 / / / G#5 /// /
Come on! Just feel it!
C#5 / / / G#5 /// /
Don't you? see it ?
E5 F#5
You better believe__________________

[Chorus] (Heavy distortion + strings)
E5 C#5 G#5 F#5
Whenever she is raging She takes all life away
E5 B5 F#5 G#5
Haven't you seen ? Haven't you seen ? The ruins of our__ world_____
E5 C#5 G#5 F#5
Whenever she is raging She takes all life away
E5 B5 F#5 G#5
Haven't you seen ? Haven't you seen ? The ruins of OUR__ WORLD_____

[Repeat Intro1]
Fade out..

ProTabs promo.jpg

Onbeperkt en gratis toegang tot alle 25.000
Tabs & Chords en direct meespelen met

Artiest Liedje

...

Gitaarakkoorden within temptation - Ice queen

Dankzij de bladmuziek op deze pagina wordt het een stuk makkelijker om met de gitaar mee te spelen met Ice queen van within temptation De ProTabs van Gitaartabs worden door onze professionele gitaardocenten samengesteld. De tabs en chords zijn door leden zelf geplaatst. Deze undefined van within temptation met Ice queen is voor je geschreven door gitaartabs

Tabs & Chords van within temptation - Ice queen

Bij de ProTabs delen we niet alleen de tablatuur maar ook de speelwijze van Ice queen Met een beetje gitaar ervaring moet je dit gitaarliedje zeker kunnen spelen, maar als het niet lukt zijn we er altijd om je te helpen. Door een gratis account aan te maken krijg je niet alleen toegang tot deze bass-tab ,akkoorden & tabs van Ice queen maar kun je ook onbeperkt meespelen met een van de meer dan 25.000 andere tabs & chords in onze database.

Plaats opmerking

Verstuur

Beoordeel deze song

Rate UsDon’t love itNot greatGoodGreatLove itRate Us

Bedankt voor je beoordeling!