Head over feet

Gitaarliedjes, tabs & akkoorden (chords) Head over feet - alanis morissette

Songtype: Chords

arrow&v

Markeer als favoriet

Favoriet

Gemarkeerd als favoriet

Capo:

0

alanis morissette

alanis morissette

Song
Album
Categorie

Head over feet

Downloads
2227
Niveau
1

Geplaatst door
gitaartabs
ProTabs-promo.jpg

#----------------------------------PLEASE NOTE---------------------------------#
Head over feet

DISTORTED GUITAR

Chords used:
Verses: Chorus:
C: 335553 D: 557775
G: 355433 Bm: 224432
Am: 577555 A: 577655 or 002220
F: 133211 Bb: 113331

Notation legend
^ --> upstroke
v --> downstroke
/ --> slide up
\ --> slide down
!*! --> turn your guitar from distorted to clean (in verse 6))
$#$ --> turn your guitar from clean to distorted (after verse 6)
- - - - - - - - - - - - - - - - - - - - - - - - - - - - - - - - - - - -

VERSE 1

C G Am F
| + . + . + . + . | + . + . + . + . |
|-3-----3-----3-------------3-----|-5-----5-----1-------------1-----|
|-5-----5-----3-------------3-----|-5-----5-----1-------------1-----|
|-5-----5-----4-------------4-----|-5-----5-----2-------------2-----|
|-5-----------5-------------5-----|-7-----------3-------------3-----|
|-3-----------5-------------5-----|-7-----------3-------------3-----|
|-------------3-------------3-----|-5-----------1-------------------|
v ^ v ^ v ^ v ^
I had no choice but to hear you

C G Am F
| + . + . + . + . | + . + . + . + . |
|-3-----3-----3-------------3-----|-5-----5-----1-------------1-1---|
|-5-----5-----3-------------3-----|-5-----5-----1-------------1-1---|
|-5-----5-----4-------------4-----|-5-----5-----2-------------2-2---|
|-5-----------5-------------5-----|-7-----------3-------------3-3---|
|-3-----------5-------------5-----|-7-----------3-------------3-3---|
|-------------3-------------3-----|-5-----------1-------------1-----|
v ^ v ^ v ^ v v ^
You sta-----ted your case time and a--gain

C G Am F
| + . + . + . + . | + . + . + . + . |
|-3-----3-----3-------------3-----|-5-----5-----1-------------1-----|
|-5-----5-----3-------------3-----|-5-----5-----1-------------1-----|
|-5-----5-----4-------------4-----|-5-----5-----2-------------2-----|
|-5-----------5-------------5-----|-7-----------3-------------3-----|
|-3-----------5-------------5-----|-7-----------3-------------3-----|
|-------------3-------------3-----|-5-----------1-------------------|
v ^ v ^ v ^ v ^
I thought a---bout it.


VERSE 2

C G Am F
| + . + . + . + . | + . + . + . + . |
|-3-----3-----3-----------3-3-----|-5-----5-----1-----------1-1-----|
|-5-----5-----3-----------3-3-----|-5-----5-----1-----------1-1-----|
|-5-----5-----4-----------4-4-----|-5-----5-----2-----------2-2-----|
|-5-----------5-----------5-5-----|-7-----------3-----------3-3-----|
|-3-----------5-----------5-5-----|-7-----------3-----------3-3-----|
|-------------3-----------3-------|-5-----------1-----------1-------|
v ^ v v ^ v ^ v v ^
You treat me like I'm a princess

C G Am F
| + . + . + . + . | + . + . + . + . |
|-3-----3-----3-----------3-3-----|-5-----5-----1-------------1-----|
|-5-----5-----3-----------3-3-----|-5-----5-----1-------------------|
|-5-----5-----4-----------4-4-----|-5-----5-----2---------2---------|
|-5-----------5-----------5-5-----|-7-----------3-------3-----------|
|-3-----------5-----------5-5-----|-7-----------3-------------------|
|-------------3-----------3-------|-5-----------1-------------------|
v ^ v v ^ v ^ v
I'm not used to liking that

C G Am F
| + . + . + . + . | + . + . + . + . |
|-3-----3-----3-------------3-----|-5-----5-----1-------1-----------|
|-5-----5-----3-------------3-----|-5-----5-----1-------------------|
|-5-----5-----4-------------4-----|-5-----5-----2-------------------|
|-5-----------5-------------5-----|-7-----------3-------------------|
|-3-----------5-------------5-----|-7-----------3-------------------|
|-------------3-------------3-----|-5-----------1-------------------|
v ^ v ^ v ^ v
You ask how my day was. You've already


CHORUS

D Bm G A
| + . + . + . + . | + . + . + . + . |
|-5-----5-5-----2-----0---0-------|-3------/5---5-------5---5-5-----|
|-7-----7-7-----3-----------2-----|-3------/5---5-------5---5-5-----|
|-7-----7-7-----4-----------------|-4------/6---6-------6---6-6-----|
|-7-----7-7-----4-----------------|-5------/7---7-------7---7-7-----|
|-5-------5-----2-----------------|-5------/7---7-------7---7-------|
|---------------2-----------------|-3------/5---5-------5---5-------|
v ^ v v v v v v ^
won me o----ve------er in spite of me. Don't be a-

D Bm Bb A
| + . + . + . + . | + . + . + . + . |
|-5-----5-5-----2---------0-------|-1-----1-----0-------0---0-0-0---|
|-7-----7-7-----3-----------2-----|-3-----3-----2-------2---2-2-2---|
|-7-----7-7-----4-----------------|-3-----3-----2-------2---2-2-2---|
|-7-----7-7-----4-----------------|-3-----3-----2-------2---2-2-2---|
|-5-------5-----2-----------------|-1-----1-----0-------0---0-0-0---|
|---------------2-----------------|-------------0-------0---0-0-0---|
v ^ v v v ^ v v v ^ v
larmed if I fa------all head o--ver feet. Don't be sur-

D Bm G A
| + . + . + . + . | + . + . + . + . |
|-5-----5-5-----2---------0-------|-3------/5---5-------5---5-5-----|
|-7-----7-7-----3-----------2-----|-3------/5---5-------5---5-5-----|
|-7-----7-7-----4-----4-----------|-4------/6---6-------6---6-6-----|
|-7-----7-7-----4-----------------|-5------/7---7-------7---7-7-----|
|-5-------5-----2-----------------|-5------/7---7-------7---7-7-----|
|---------------2-----------------|-3------/5---5-------5---5-------|
v ^ v v v v v v ^
prised if I love you for all that you are

F C G
| + . + . + . + . | + . + . + . + . |
|-1-----1-1---3-------3---3-------|-3-------------------3---3---3/8-\-|
|-1-----1-1---5-------5---5-------|-3-------------------3---3---3/8-\-|
|-2-----2-2---5-------5---5-------|-4-------------------4---4---4/9-\-|
|-3-----3-3---5-------5---5-------|-5-------------------5---5---5/10\-|
|-3-----3-3---3-------3---3-------|-5-------------------5---5---5/10\-|
|-1-----1-1-----------------------|-3-------------------3---3---3/8-\-|
v ^ v v v v v v v
I couldn't help it It's all your fault.


VERSE 3 (same guitar as in verse 2)

Your love is thick and it swallowed me whole.
You're so much braver than I gave you credit for.
That's not lip service.


CHORUS (guitar: don't do the slide up and down in the last bar)


VERSE 4

C G Am F
| + . + . + . + . | + . + . + . + . |
|-3-----3-------------3-----3-----|-5-----5-----1-----------1-1-----|
|-5-----5-------------3-----3-----|-5-----5-----1-----------1-1-----|
|-5-----5-------------4-----4-----|-5-----5-----2-----------2-2-----|
|-5-------------------5-----5-----|-7-----------3-----------3-3-----|
|-3-------------------5-----5-----|-7-----------3-----------3-3-----|
|---------------------3-----------|-5-----------1-----------1-------|
v ^ v ^ v ^ v v ^
You are the bea-------rer of un--conditional

C G Am F
| + . + . + . + . | + . + . + . + . |
|-3-----3-----------------3-3-----|-5-----5-----1-------------1-----|
|-5-----5-----------------3-3-----|-5-----5-----1---------1---------|
|-5-----5-----------------4-4-----|-5-----5-----2-------2-----------|
|-5-----------------------5-5-----|-7-----------3---------------3---|
|-3-----------------------5-5-----|-7-----------3-------------------|
|-------------------------3-------|-5-----------1-------------------|
v ^ v ^ v ^ v
things. You held your breath and the door for me

C G Am F
| + . + . + . + . | + . + . + . + . |
|-3-----3-----3-------------3-----|-5-----5-----1-------1---1-1-----|
|-5-----5-----3-------------3-----|-5-----5-----1-------1---1-1-----|
|-5-----5-----4-------------4-----|-5-----5-----2-------2---2-2-----|
|-5-----------5-------------5-----|-7-----------3-------3---3-3-----|
|-3-----------5-------------5-----|-7-----------3-------3---3-3-----|
|-------------3-------------------|-5-----------1-------1-----1-----|
v ^ v ^ v ^ v v ^ v
Thanks for your pa-------tience


HARMONICA SOLO (over chorus-chords, with slide up and down in the last bar)


VERSE 5 (same guitar as in verses 2 and 3)

You're the best listener that I've ever met
You're my best friend, best friend with benefits
What took me so long


VERSE 6

C G Am F
| + . + . + . + . | + . + . + . + . |
|-3-----3-----3-----------3-3-----|-5-----5-----1-----------1-1-----|
|-5-----5-----3-----------3-3-----|-5-----5-----1-----------1-1-----|
|-5-----5-----4-----------4-4-----|-5-----5-----2-----------2-2-----|
|-5-----------5-----------5-5-----|-7-----------3-----------3-3-----|
|-3-----------5-----------5-5-----|-7-----------3-----------3-3-----|
|-------------3-----------3-------|-5-----------1-----------1-------|
v ^ v v ^ v ^ v v ^
I've ne---------ver felt this healthy before

C G Am F
| + . + . + . + . | + . + . + . + . |
|-3-----3-----3-----------3-3-----|-5-----5-----1-------------1-----|
|-5-----5-----3-----------3-3-----|-5-----5-----1-------------------|
|-5-----5-----4-----------4-4-----|-5-----5-----2---------2---------|
|-5-----------5-----------5-5-----|-7-----7-----3-------3-----------|
|-3-----------5-----------5-5-----|-7-----7-----3-------------------|
|-------------3-----------3-------|-5-----------1-------------------|
v ^ v v ^ v ^ v
I've ne---------ver wan------ted something rational

C G Am F
| + . + . + . + . | + . + . + . + . |
|-3-----3-----3-----!*!---3-3-----|-5-----5-5---1-----1-1---1-1-----|
|-5-----5-----3-----!*!---3-3-----|-5-----5-5---1-----1-1---1-1-----|
|-5-----5-----4-----!*!---4-4-----|-5-----5-5---2-----2-2---2-2-----|
|-5-----------5-----!*!---5-5-----|-7-----7-7---3-----3-3---3-3-----|
|-3-----------5-----!*!---5-5-----|-7-----7-7---3-----3-3---3-3-----|
|-3-----------3-----!*!---3-------|-5-------5---1-------1---1-------|
v ^ v v ^ v ^ v v ^ v v ^
I am a---ware now-------------ow

C G Am F
| + . + . + . + . | + . + . + . + . |
|-3-----3-3---3-----3-3---3-3-----|-5-----5-5---1-----1-1---1-1-----|$#$
|-5-----5-5---3-----3-3---3-3-----|-5-----5-5---1-----1-1---1-1-----|$#$
|-5-----5-5---4-----4-4---4-4-----|-5-----5-5---2-----2-2---2-2-----|$#$
|-5-----5-5---5-----5-5---5-5-----|-7-----7-7---3-----3-3---3-3-----|$#$
|-3-----3-3---5-----5-5---5-5-----|-7-----7-7---3-----3-3---3-3-----|$#$
|-------------3-------3---3-------|-5-------5---1-------1---1-------|$#$
v ^ v v ^ v v ^ v ^ v v ^ v v ^
I am a---ware now. You've already

CHORUS (without the slides)
CHORUS (with the slides)

HARMONICA (over chorus-chords)
*fade*
^Z

ProTabs promo.jpg

Onbeperkt en gratis toegang tot alle 25.000
Tabs & Chords en direct meespelen met

Artiest Liedje

...

Gitaarakkoorden alanis morissette - Head over feet

Dankzij de bladmuziek op deze pagina wordt het een stuk makkelijker om met de gitaar mee te spelen met Head over feet van alanis morissette De ProTabs van Gitaartabs worden door onze professionele gitaardocenten samengesteld. De tabs en chords zijn door leden zelf geplaatst. Deze undefined van alanis morissette met Head over feet is voor je geschreven door gitaartabs

Tabs & Chords van alanis morissette - Head over feet

Bij de ProTabs delen we niet alleen de tablatuur maar ook de speelwijze van Head over feet Met een beetje gitaar ervaring moet je dit gitaarliedje zeker kunnen spelen, maar als het niet lukt zijn we er altijd om je te helpen. Door een gratis account aan te maken krijg je niet alleen toegang tot deze chords ,akkoorden & tabs van Head over feet maar kun je ook onbeperkt meespelen met een van de meer dan 25.000 andere tabs & chords in onze database.

Plaats opmerking

Verstuur

Beoordeel deze song

Rate UsDon’t love itNot greatGoodGreatLove itRate Us

Bedankt voor je beoordeling!