Crazy

Gitaarliedjes, tabs & akkoorden (chords) Crazy - britney spears

Songtype: Chords

arrow&v

Markeer als favoriet

Favoriet

Gemarkeerd als favoriet

Capo:

0

britney spears

britney spears

Song
Album
Categorie

Crazy

Downloads
403
Niveau
2
Geplaatst door
anna
ProTabs-promo.jpg

BREAK

D#
Crazy, I just can't sleep
D#
I'm so excited, I'm in too deep
B A#
Crazy, but it feels alright
B A#
Every day and every night


SOLO

I'm not sure that the guitar-leader plays EXACTLY this,
but it sounds good... Play faster than light ;-)

bend and release slide down
e-|-------------------------------------------------------|
B-|-16b(18)r16---11h13h16p13p11h13h16p11h13h16p11h13--\\\-|
G-|-------------------------------------------------------|
D-|-------------------------------------------------------|
A-|-------------------------------------------------------|
E-|-------------------------------------------------------|

artificial harmonics
e-|----------------------------------|
B-|----------------11----------------|
G-|-5-8-10-10-10-8---<10>---8-<10>---|
D-|----------------------------------|
A-|----------------------------------|
E-|----------------------------------|

Here, i'm really really really not sure !
e-|--------------------------------------|
B-|-11p8---------------------------------|
G-|------10p8h10p8-----------------------|
D-|----------------10p8------------------|
A-|---------------------10p8h10p8--------|
E-|-------------------------------8p6h8--|


CHORUS
...
...
...


C5 F5 G5 B5 C5
Baby thinkin' of you keeps me up all night

ProTabs promo.jpg

Onbeperkt en gratis toegang tot alle 25.000
Tabs & Chords en direct meespelen met

Artiest Liedje

...

Gitaarakkoorden britney spears - Crazy

Dankzij de bladmuziek op deze pagina wordt het een stuk makkelijker om met de gitaar mee te spelen met Crazy van britney spears De ProTabs van Gitaartabs worden door onze professionele gitaardocenten samengesteld. De tabs en chords zijn door leden zelf geplaatst. Deze undefined van britney spears met Crazy is voor je geschreven door anna

Tabs & Chords van britney spears - Crazy

Bij de ProTabs delen we niet alleen de tablatuur maar ook de speelwijze van Crazy Met een beetje gitaar ervaring moet je dit gitaarliedje zeker kunnen spelen, maar als het niet lukt zijn we er altijd om je te helpen. Door een gratis account aan te maken krijg je niet alleen toegang tot deze chords ,akkoorden & tabs van Crazy maar kun je ook onbeperkt meespelen met een van de meer dan 25.000 andere tabs & chords in onze database.

Plaats opmerking

Beoordeel deze song

Rate UsDon’t love itNot greatGoodGreatLove itRate Us

Bedankt voor je beoordeling!