(Ghost) Riders in the Sky

Gitaarliedjes, tabs & akkoorden (chords) (Ghost) Riders in the Sky - johnny cash

Songtype: Chords

arrow&v

Markeer als favoriet

Favoriet

Gemarkeerd als favoriet

Capo:

0

johnny cash

johnny cash

Song
Album
Categorie

(Ghost) Riders in the Sky

Silver

Downloads
2865
Niveau
2
Geplaatst door
Stan Jones
ProTabs-promo.jpg

(Am)An old cowboy went riding out (C)one dark and windy day
(Am)Upon a ridge he rested as (C)he went along his way
(Am)When all at once a mighty herd of red eyed cows he saw
(F)A plowing through the ragged sky (Am)and up the cloudy draw

(Am)Their brands were still on fire and (C)their hooves were made of steel
(Am)Their horns were black and shiny and (C)their hot breath he could feel
(Am)A bolt of fear went through him as they thundered through the sky
(F)For he saw the Riders coming hard and (Am)he heard their mournful cry

(Am)Yippie yi (C)Ohhhhh
(C)Yippie yi (Am)yaaaaay
(F)Ghost Riders in the (Am)sky

(Am) (C)
(Am) (C)
(Am)
(F) (Am)

(Am)Their faces gaunt, their eyes were blurred, (C)their shirts all soaked with sweat
(Am)He's riding hard to catch that herd, (C)but he ain't caught 'em yet
(Am)Cause they've got to ride forever on that range up in the sky
(F)On horses snorting fire (Am)As they ride on hear their cry

(Am)As the riders loped on by him he (C)heard one call his name
(Am)If you want to save your soul from Hell (C)a-riding on our range
(Am)Then cowboy change your ways today or with us you will ride
(F)Trying to catch the Devil's herd, (Am)across these endless skies

(Am)Yippie yi (C)Ohhhhh
(C)Yippie yi (Am)yaaaaay
(F)Ghost Riders in the (Am)sky

(F)Ghost Riders in the (Am)sky 3x

e|-------------------------------------------------------------------------|
B|-------------------------------------------------------------------------|
G|-------------------------------------------------------------------------|
D|-----------------------------------------------------------------------0-|
A|----0-0-0--0-2-3--3-3-3--3-0--------------------0-0-0--0-2-3--3-3-3--3---|
E|-0---------------------------3-3-3--3-0-3----0---------------------------|

e|-------------------------------------------------------------------------|
B|-------------------------------------------------------------------------|
G|---------------------2-2-2-2-2-------------------------------------------|
D|-2-2-2--2---2---2-2-------------2-2-2-2-2--------------------------------|
A|----------3-------------------------------3-3-3-3-3-0------------3-3-3-3-|
E|---------------------------------------------------------1-1-1-1---------|

e|-------------------------------------------------------------------------|
B|-------------------------------------------------------------------------|
G|-------------------------------------------------------------------------|
D|-------------------------------------------------------------------------|
A|-3-3-3-3-0-0-0-----------------------------------------------------------|
E|------------3-------------------------------------------------------------|

ProTabs promo.jpg

Onbeperkt en gratis toegang tot alle 25.000
Tabs & Chords en direct meespelen met

Artiest Liedje

...

Gitaarakkoorden johnny cash - (Ghost) Riders in the Sky

Dankzij de bladmuziek op deze pagina wordt het een stuk makkelijker om met de gitaar mee te spelen met (Ghost) Riders in the Sky van johnny cash De ProTabs van Gitaartabs worden door onze professionele gitaardocenten samengesteld. De tabs en chords zijn door leden zelf geplaatst. Deze undefined van johnny cash met (Ghost) Riders in the Sky is voor je geschreven door Stan Jones

Tabs & Chords van johnny cash - (Ghost) Riders in the Sky

Bij de ProTabs delen we niet alleen de tablatuur maar ook de speelwijze van (Ghost) Riders in the Sky Met een beetje gitaar ervaring moet je dit gitaarliedje zeker kunnen spelen, maar als het niet lukt zijn we er altijd om je te helpen. Door een gratis account aan te maken krijg je niet alleen toegang tot deze chords ,akkoorden & tabs van (Ghost) Riders in the Sky maar kun je ook onbeperkt meespelen met een van de meer dan 25.000 andere tabs & chords in onze database.

Plaats opmerking

Beoordeel deze song

Rate UsDon’t love itNot greatGoodGreatLove itRate Us

Bedankt voor je beoordeling!