As long as you want this

Gitaarliedjes, tabs & akkoorden (chords) As long as you want this - kane

Songtype: Chords

arrow&v

Markeer als favoriet

Favoriet

Gemarkeerd als favoriet

Capo:

0

kane

kane

Song
Album
Categorie

As long as you want this

Downloads
1599
Niveau
1
Geplaatst door
gitaartabs
ProTabs-promo.jpg

As long as you want this

Intro riff
e------
B------
G------
D-12/0-
A-12/0-
D-12/0-

Riff1 (Drop-D)
e--------------------------------------------------
B--------------------------------------------------
G--------------------------------------------------
D--------------------------------------------------
A---------5--3-0-3-0-3--2-0-2-0-2--2-0-2h3p2-------
D-0-0-3h5------------------------------------5-3-2-


Riff2 (Drop-D)
D-5-5-5-5-5-5-5-5/6-6-6-6-6-6-6-6
A-5-5-5-5-5-5-5-5/6-6-6-6-6-6-6-6
D-5-5-5-5-5-5-5-5/6-6-6-6-6-6-6-6
G5 G#5

Riff2 (Standard tuning)
e--------------------------------
B--------------------------------
G--------------------------------
D-5-3-5-5-5-5-5-5/6-6-6-6-6-6-6-6
A-5-5-5-5-5-5-5-5/6-6-6-6-6-6-6-6
E-3-3-3-3-3-3-3-3/4-4-4-4-4-4-4-4
G5 G#5



[Intro]
Riff 1 (4x)
So come on now
Come on now
Come on_____
Now!


G5 G#5 Riff1
So I'm looking for the rightful let me in
G5 G#5 Riff1
Kick me hit me don't you know I always win
G5 G#5
Heaven help you, heaven knows what's on my
C5 C/B Bb A5 Riff1
mind____ Oooh___________oh as long as you want this

G5 G#5 Riff1
Here's my answer, here's my one and only truth
G5 G#5
Here's the reason why I give my word to


Riff3a
e-----------------------------
B-----------------------------
G-----------------------------
D-5------5------3------2------
A-3------2------1------0------
E-----------------------------
C5 C/B Bb A5

Riff3b
e----10/12\10~~


[Pre-chorus]
C5 C/B Bb A5
you________Oh___ so just this once I want it all this time
C5 C/B
As far as I remember, the chains were always ending
Bb A5
But life is never ending no Oh no

[Chorus]
A5 D5 C5 G5
So as long as you want this, I have to let you know
D5 C5 G5
If you want this, I have to let you know
Bb C5
This much is true, and I'll never change, I'll never stop
Bb C5 Riff1
I'll never change, this time I'm gonna take you down


Riff4a (Drop-D)
e------------------------------------------
B------------------------------------------
G---------------------5-5------------------
D-0-0-x-x-x-0-0-x-x-x-5-5-x-x-x-5-5--------
A-0-0-x-x-x-0-0-x-x-x-3-3-x-x-x-5-5-x-x-x--
D-0-0-x-x-x-0-0-x-x-x-----x-x-x-5-5-x-x-x--
D5 C5 G5

Riff4b
e---------------------------------
B---------------------------------
G---------------------------------
D-3-3-3-3-3-3-3-3-5-5-5-5-5-5-5-5-
A-1-1-1-1-1-1-1-1-3-3-3-3-3-3-3-3-
E---------------------------------
Bb C5


G5 G#5 Riff1
Oh come see me oh come hear me, I'm your man
G5 G#5
Oh come feelin' what I give is what I

[Pre-chorus]
C5 C/B Bb A5
am_________Oh___ for just this once I want it all this time
C5 C/B
As far as I remember, the chains were always ending
Bb A5
But life is never ending no! no!

[Chorus]
A5 D5 C5 G5
So as long as you want this, I have to let you know
D5 C5 G5
If you want this, I have to let you know
Bb C5
This much is true, and I'll never change, I'll never stop
Bb C5 Bass riff1
I'll never change, this time I'm gonna take you down oh I'm gonna take you
Bass riff1
down Ohh__ C'mon

[Solo]
D5 C5 G5
D5 C5 G5
D5 C5 G5
No no no
C5
No no no


Solo (this riff 2x)
e-----------------------------------------------------------------
B-----------------------------------------------------------------
G--------------17-----------17-----------17-----------------------
D-15--15-15-15----15--15-15----15--15-15----15h17h18p17p15-17-15--
A-----------------------------------------------------------------
E-----------------------------------------------------------------


e-----------------------------------------/13----
B-----------------------------------/13------/15-
G-14-14-17b19--14-14-17h19-14----/14---/14-------
D-----------------------------17-----------------
A------------------------------------------------
E------------------------------------------------


e---------------------------------------------
B-13-13-13-13-13-13-13-13-13-13b15~~~~~~~~~~~~
G---------------------------------------------
D---------------------------------------------
A---------------------------------------------
E---------------------------------------------

C5 D5 C5 G5
So as long as you want this, I have to let you know
D5 C5 G5
If you want this, I have to let you know
Bb C5
This much is true yeah, and I'll never change, I'll never stop
(so give it to me, give it to me yeah)
Bb C5
I'll never change,
(Won't you give it to me, give it to me yeah)
Bb C5 Riff1
I'll never change, this time I'm gonna take you down


Chords:
Drop-D tuning

Standard /Drop-D
G5 355xxx /555xxx
G#5 466xxx /666xxx
C5 x35xxx
C/B x25xxx
Bb x133xx
A5 x022xx
D5 x577xx /000xxx

ProTabs promo.jpg

Onbeperkt en gratis toegang tot alle 25.000
Tabs & Chords en direct meespelen met

Artiest Liedje

...

Gitaarakkoorden kane - As long as you want this

Dankzij de bladmuziek op deze pagina wordt het een stuk makkelijker om met de gitaar mee te spelen met As long as you want this van kane De ProTabs van Gitaartabs worden door onze professionele gitaardocenten samengesteld. De tabs en chords zijn door leden zelf geplaatst. Deze undefined van kane met As long as you want this is voor je geschreven door gitaartabs

Tabs & Chords van kane - As long as you want this

Bij de ProTabs delen we niet alleen de tablatuur maar ook de speelwijze van As long as you want this Met een beetje gitaar ervaring moet je dit gitaarliedje zeker kunnen spelen, maar als het niet lukt zijn we er altijd om je te helpen. Door een gratis account aan te maken krijg je niet alleen toegang tot deze chords ,akkoorden & tabs van As long as you want this maar kun je ook onbeperkt meespelen met een van de meer dan 25.000 andere tabs & chords in onze database.

Plaats opmerking

Beoordeel deze song

Rate UsDon’t love itNot greatGoodGreatLove itRate Us

Bedankt voor je beoordeling!