Damn those eyes

Gitaarliedjes, tabs & akkoorden (chords) Damn those eyes - kane

Songtype: Chords

arrow&v

Markeer als favoriet

Favoriet

Gemarkeerd als favoriet

Capo:

0

kane

kane

Song
Album
Categorie

Damn those eyes

Downloads
2523
Niveau
2
Geplaatst door
gitaartabs
ProTabs-promo.jpg

Damn those eyes


Couplet

|------------------------------------------0----------0---|
|----8------7----7---------5--------5----5----5----5------|
|----9------7------7-------6--------6----6----6----6------|
|----9------7---------------7--------7----7----7----7-----|
|---------------------------------------------------------|
|---------------------------------------------------------|



change to verve

|----------------------------------------------------------------|
|----3-----3----3-----5-----5-----5------7----7------8----8------|
|----4-----4----4-----6-----6-----6------7----7------9----9------|
|----5-----5----5-----7-----7-----7-------------------10--10-----|
|----------------------------------------------------------------|
|----------------------------------------------------------------|



Refrein

G A Bm Bm
G A Bm Csus2

tekst;

Damn those eyes,
They keep me torn inside.
She runs like a river through me,
Always you.

Eyes don't lie, words may trie.
She comes like a mysterie, flows through me,
And I swear it's true,
Always you....

I wish I could run in to you now, ey yeah
I wish I could run in to you now
If I see you one more time,
maybe I'd feel better, ey yeah
If I'd see you one more time,
Maybe I'd feel not so cold.

Damn those eyes,
No matter how I trie,
She raignes with her symphonie, over me.
Words may trie
I said
eyes don't lie,
She speaks with her tender voice,
'till there's no choice,
And I swear it's true, always you...

Eh yeah eh yeah
I wish I could run in to you now, ey yeah
I wish I could run in to you now
If I see you one more time, maybe I'd feel better,
If I'd see you one more time,
Maybe I'd feel better

Eh yeh Oh ey yeah eh eh yeah
Eh yeah yeah, better

O o o yeah yeah

See you one more time
hold you one more time
baby yeah
baby baby yeah
baby baby
see you want you
o yeah maybe i'd feel better
If I'd see you one more time
maybe i'd feel better
if i'd see you one more time
maybe i'd feel...
maybe i'd feel a whole lot better

ProTabs promo.jpg

Onbeperkt en gratis toegang tot alle 25.000
Tabs & Chords en direct meespelen met

Artiest Liedje

...

Gitaarakkoorden kane - Damn those eyes

Dankzij de bladmuziek op deze pagina wordt het een stuk makkelijker om met de gitaar mee te spelen met Damn those eyes van kane De ProTabs van Gitaartabs worden door onze professionele gitaardocenten samengesteld. De tabs en chords zijn door leden zelf geplaatst. Deze undefined van kane met Damn those eyes is voor je geschreven door gitaartabs

Tabs & Chords van kane - Damn those eyes

Bij de ProTabs delen we niet alleen de tablatuur maar ook de speelwijze van Damn those eyes Met een beetje gitaar ervaring moet je dit gitaarliedje zeker kunnen spelen, maar als het niet lukt zijn we er altijd om je te helpen. Door een gratis account aan te maken krijg je niet alleen toegang tot deze chords ,akkoorden & tabs van Damn those eyes maar kun je ook onbeperkt meespelen met een van de meer dan 25.000 andere tabs & chords in onze database.

Plaats opmerking

Beoordeel deze song

Rate UsDon’t love itNot greatGoodGreatLove itRate Us

Bedankt voor je beoordeling!