Happy now

Gitaarliedjes, tabs & akkoorden (chords) Happy now - krezip

Songtype: Chords

arrow&v

Markeer als favoriet

Favoriet

Gemarkeerd als favoriet

Capo:

0

krezip

krezip

Song
Album
Categorie

Happy now

Downloads
700
Niveau
3
Geplaatst door
gitaartabs
ProTabs-promo.jpg

happy now


I) Ebm Db B B
II) Ebm B Ebm B
(B )
III) Ebm Db B Db
Ebm

I)

II)
afraid you're alone now i'll help you i want to
no chance that you'll get here i'll get you can't find you

still mad at your mama, defend her at the same time
you love her, do you know it should not go this way

I)
i just want to know are you happy now
by chance want to see, see you one more time
i only want to hear how you're doing now
i want to believe that you're happy now

II)
who is your boyfriend does he treat you right
has he gone too far or haven't you let him

I)
i just want to know are you happy now
by chance want to see, see you one more time
i only want to hear how you're doing now
i want to believe that you're happy now
yeah, are you happy now or not
promise me promise me now
you oh yeah no

1 1 1 1 1
e -----------11-----------------11-----------------11-----------------11--------------------------
B --------11----12p11--------11----12p11--------11----12p11--------11----14^-----14---------------
G -13^----------------13^----------------13^----------------13^--------------------------15-11----
D ---------------------------------------------------------------------------------------------13-
A ------------------------------------------------------------------------------------------------
E ------------------------------------------------------------------------------------------------

1 1 1 1 1
e -----------11-----------------11-----------------11-----------------11-13^~~---11---------------------------11-
B --------11----12p11--------11----12p11--------11----12p11--------11-----------------14-11----14-11----11-14----
G -13^----------------13^----------------13^----------------13^--------------------------------------13----------
D ---------------------------------------------------------------------------------------------------------------
A ---------------------------------------------------------------------------------------------------------------
E ---------------------------------------------------------------------------------------------------------------

1 1 1 1 1
e -----------11-----------------11-----------------11-----------------11--------------------------
B --------11----12p11--------11----12p11--------11----12p11--------11----14^-----14---------------
G -13^----------------13^----------------13^----------------13^--------------------------15-11----
D ---------------------------------------------------------------------------------------------13-
A ------------------------------------------------------------------------------------------------
E ------------------------------------------------------------------------------------------------

1 1 1 1 1
e -----------11-----------------11-----------------11-----------------11-13^~~---11---------------------------------------------------------
B --------11----12p11--------11----12p11--------11----12p11--------11-----------------14-11-------------------------------------------------
G -13^----------------13^----------------13^----------------13^-----------------------------11h13p11h13p11h13p11h13p11h13p11h13p11h13p11h13-
D ------------------------------------------------------------------------------------------------------------------------------------------
A ------------------------------------------------------------------------------------------------------------------------------------------
E ------------------------------------------------------------------------------------------------------------------------------------------

i just want to know are you happy now
by chance want to see, see you one more time
i only want to hear how you're doing now
i want to believe that you're happy now
i want to believe that you're happy now

ProTabs promo.jpg

Onbeperkt en gratis toegang tot alle 25.000
Tabs & Chords en direct meespelen met

Artiest Liedje

...

Gitaarakkoorden krezip - Happy now

Dankzij de bladmuziek op deze pagina wordt het een stuk makkelijker om met de gitaar mee te spelen met Happy now van krezip De ProTabs van Gitaartabs worden door onze professionele gitaardocenten samengesteld. De tabs en chords zijn door leden zelf geplaatst. Deze undefined van krezip met Happy now is voor je geschreven door gitaartabs

Tabs & Chords van krezip - Happy now

Bij de ProTabs delen we niet alleen de tablatuur maar ook de speelwijze van Happy now Met een beetje gitaar ervaring moet je dit gitaarliedje zeker kunnen spelen, maar als het niet lukt zijn we er altijd om je te helpen. Door een gratis account aan te maken krijg je niet alleen toegang tot deze chords ,akkoorden & tabs van Happy now maar kun je ook onbeperkt meespelen met een van de meer dan 25.000 andere tabs & chords in onze database.

Plaats opmerking

Beoordeel deze song

Rate UsDon’t love itNot greatGoodGreatLove itRate Us

Bedankt voor je beoordeling!