You re gone

Gitaarliedjes, tabs & akkoorden (chords) You re gone - krezip

Songtype: Chords

arrow&v

Markeer als favoriet

Favoriet

Gemarkeerd als favoriet

Capo:

0

krezip

krezip

Song
Album
Categorie

You re gone

Downloads
840
Niveau
1
Geplaatst door
gitaartabs
ProTabs-promo.jpg

you re gone


I) A A G F
G ---------|---------|---------|---------|-
D ---------|---------|---------|---------|-
A -0-------|-0-------|---------|---------|-
E ---------|---------|-3-------|-1-------|-

II) A A F E
G ---------|---------|---------|---------|-
D ---------|---------|---------|---------|-
A -0-------|-0-------|---------|---------|-
E ---------|---------|-1-------|-0-------|-

III) E
G ---------|---------|-
D ---------|---------|-
A ---------|---------|-
E -0-------|---------|-

IV) A A F E
G ---------|---------|---------|---------|-
D ---------|---------|---------|---------|-
A -0-----0-|-0-----0-|---------|---------|-
E ---------|---------|-1-----1-|-0-----0-|-

V) A A G F
G ---------|---------|---------|---------|-
D ---------|---------|---------|---------|-
A -0-----0-|-0-----0-|---------|---------|-
E ---------|---------|-3-----3-|-1-----1-|-


I)

II)

I)
my head was dreaming when i saw you falling down
i didn't see that you were suffering so much
but the things you said weren't more than just a sentimental dream
you were my queen, you were, and it hits me like a rock

III)

IV)
you're gone, you're gone, you're gone out of my dreams
it hurts, it's true, you weren't what it seemed
and it goes around that you always did, you weren't what it seemed (you're gone, you're gone, you're gone out of my dreams)
and if you meant it then, i don't know, but you were not who i thought you would be (it hurts, it's true)

V)
you would be

IV)

V)
i've always seen you like a saving angel
someone who knows everything or has been everywhere
but the things you said weren't more than just a sentimental dream
you were my queen, you were, and it hits me like a rock

III)

IV)
you're gone, you're gone, you're gone out of my dreams
it hurts, it's true, you weren't what it seemed
and it goes around that you always did, you weren't what it seemed (you're gone, you're gone, you're gone out of my dreams)
and if you meant it then, i don't know, but you were not who i thought that you would be (it hurts, it's true)
you would be
you would be
you would be

ProTabs promo.jpg

Onbeperkt en gratis toegang tot alle 25.000
Tabs & Chords en direct meespelen met

Artiest Liedje

...

Gitaarakkoorden krezip - You re gone

Dankzij de bladmuziek op deze pagina wordt het een stuk makkelijker om met de gitaar mee te spelen met You re gone van krezip De ProTabs van Gitaartabs worden door onze professionele gitaardocenten samengesteld. De tabs en chords zijn door leden zelf geplaatst. Deze undefined van krezip met You re gone is voor je geschreven door gitaartabs

Tabs & Chords van krezip - You re gone

Bij de ProTabs delen we niet alleen de tablatuur maar ook de speelwijze van You re gone Met een beetje gitaar ervaring moet je dit gitaarliedje zeker kunnen spelen, maar als het niet lukt zijn we er altijd om je te helpen. Door een gratis account aan te maken krijg je niet alleen toegang tot deze chords ,akkoorden & tabs van You re gone maar kun je ook onbeperkt meespelen met een van de meer dan 25.000 andere tabs & chords in onze database.

Plaats opmerking

Beoordeel deze song

Rate UsDon’t love itNot greatGoodGreatLove itRate Us

Bedankt voor je beoordeling!