All

Gitaarliedjes, tabs & akkoorden (chords) All - ks choice

Songtype: Chords

arrow&v

Markeer als favoriet

Favoriet

Gemarkeerd als favoriet

Capo:

0

ks choice

ks choice

Song
Album
Categorie

All

Downloads
1920
Niveau
2
allmost happy

Geplaatst door
unknown
ProTabs-promo.jpg

Titel: All
Artiest: K's Choice
Album: Almost Happy
Capo: 2
Tuning: E-A-D-G-B-E

CAPO ON 2nd FRET!

e|------------------------------------------|
B|------3---------3---------3---------3-----|
G|----0---0-----0---0-----0---0-----0---0---|
D|--2---------2---------0-------------------|
A|-------------------------------3----------|
G|------------------------------------------|
Is there anything you want from me

e|------------------------------------------|
B|------3---------3---------3---------3-----|
G|----0---0-----0---0-----0---0-----0---0---|
D|--2---------2---------0-------------------|
A|-------------------------------3----------|
G|------------------------------------------|
My arms my life my energy

e|------------------------------------------|
B|------3---------3---------3---------3-----|
G|----0---0-----0---0-----0---0-----0---0---|
D|------------------------------------------|
A|--2---------3---------2---------3---------|
E|------------------------------------------|
I don't know how far I can go

e|------------------------------------------|
B|------3---------3---------3---------3-----|
G|----0---0-----0---0-----0---0-----0---0---|
D|--2---------2---------0-------------------|
A|-------------------------------3----------|
G|------------------------------------------|
And everything sits low

e|------------------------------------------|
B|------3---------3---------3---------3-----|
G|----0---0-----0---0-----0---0-----0---0---|
D|--2---------2---------0-------------------|
A|-------------------------------3----------|
G|------------------------------------------|
But you know how it

e|------------------------------------------|
B|------3---------3---------3---------3-----|
G|----0---0-----0---0-----0---0-----0---0---|
D|------------------------------------------|
A|--2---------3---------2---------3---------|
E|------------------------------------------|
goes when you're used to your

e|------------------------------------------|
B|------3---------3---------2---------2h3---|
G|----0---0-----0---0-----------------------|
D|------------------------------------------|
A|--1---------1---------0---------0---------|
E|------------------------------------------|
side of the bed

e|------------------------------------------|
B|------3---------3---------3---------3-----|
G|----0---0-----0---0-----0---0-----0---0---|
D|--2---------2---------3---------3---------|
A|------------------------------------------|
E|------------------------------------------|
And I know you don't be-

e|------------------------------------------|
B|------1---------1---------1---------1-----|
G|----0---0-----0---0-----0---0-----0---0---|
D|--2---------2---------1---------1---------|
A|------------------------------------------|
E|------------------------------------------|
long in this room But you're

e|------------------------------------------|
B|------0---------0---------0---------0-----|
G|----0---0-----0---0-----0---0-----0---0---|
D|------------------------------------------|
A|--5---------5---------4---------4---------|
E|------------------------------------------|
here now so what can I do

e|------------------------------------------|
B|------1---------1---------1---------3-----|
G|----0---0-----0---0-----0---0-------------|
D|--------------------------------------5---|
A|--3---------3---------3---------3/5-------|
E|------------------------------------------|


G D Em C
e|-----------------|-----------------|-----------------|-----------------|
B|-----0-------0---|-----3-------3---|-----0-------0---|-----1-------1---|
G|---0---0---0---0-|---2---2---2---2-|---0---0---0---0-|---0---0---0---0-|
D|-----------------|-----------------|-----------------|-----------------|
A|-----------------|-----------------|-----------------|-3-------3-------|
E|-3-------3-------|-2-------2-------|-0-------0-------|-----------------|
All that I am is all I was taught to be


A F#m D/B D/C# D A/D D
e|-----------------|-----------------|-----------------|-----------------|---------------|
B|-----0-------0---|-----0-------0---|-----1-------1---|-----1-------0---|---------------|
G|---0---0---0---0-|---0---0---0---0-|---0---0---0---0-|---0---0---0---0-|---------------|
D|-----------------|-----------------|-----------------|-----------------|---------------|
A|-----------------|-----------------|-0-------2-------|-3-------3-------|-3-------------|
E|-3-------3-------|-0-------0-------|-----------------|-----------------|---------------|
All that you are is a wall between myself And me


--------------------------------------------------------------------------------

! First I tabbed this song on this way, without capo:!

e|------0---------0---------0---------0-----|
B|------------------------------------------|
G|----2---2-----2---2-----2---2-----2---2---|
D|--4---------4---------2---------0---------|
A|------------------------------------------|
G|------------------------------------------|
Is there anything you want from me

e|------0---------0---------0---------0-----|
B|------------------------------------------|
G|----2---2-----2---2-----2---2-----2---2---|
D|--4---------4---------2---------0---------|
A|------------------------------------------|
E|------------------------------------------|
My arms my life my energy

e|------0---------0---------0---------0-----|
B|------------------------------------------|
G|----2---2-----2---2-----2---2-----2---2---|
D|------------------------------------------|
A|--4---------5---------4---------5---------|
E|------------------------------------------|
I don't know how far I can go

e|------0---------0---------0---------0-----|
B|------------------------------------------|
G|----2---2-----2---2-----2---2-----2---2---|
D|--4---------4---------2---------0---------|
A|------------------------------------------|
E|------------------------------------------|
And everything sits low

e|------0---------0---------0---------0-----|
B|------------------------------------------|
G|----2---2-----2---2-----2---2-----2---2---|
D|--4---------4---------2---------0---------|
A|------------------------------------------|
E|------------------------------------------|
But you know how it

e|------0---------0---------0---------0-----|
B|------------------------------------------|
G|----2---2-----2---2-----2---2-----2---2---|
D|------------------------------------------|
A|--4---------5---------4---------5---------|
E|------------------------------------------|
goes when you're used to your

e|------0----------0------------------------|
B|--------------------------4---------4h5---|
G|----2---2------2---2----------------------|
D|------------------------------------------|
A|--3---------3---------2---------2---------|
E|------------------------------------------|
side of the bed

e|------0---------0---------0---------0-----|
B|------------------------------------------|
G|----2---2-----2---2-----2---2-----2---2---|
D|--4---------4---------5---------5---------|
A|------------------------------------------|
E|------------------------------------------|
And I know you don't be-

e|------------------------------------------|
B|------3---------3---------3---------3-----|
G|----2---2-----2---2-----2---2-----2---2---|
D|--4---------4---------3---------3---------|
A|------------------------------------------|
E|------------------------------------------|
long in this room But you're

e|------------------------------------------|
B|------2---------2---------2---------2-----|
G|----2---2-----2---2-----2---2-----2---2---|
D|--2---------2---------1---------1---------|
A|------------------------------------------|
E|------------------------------------------|
here now so what can I do

e|------------------------------------------|
B|------3---------3---------3---------5-----|
G|----2---2-----2---2-----2---2-------------|
D|--0---------0---------0---------------7---|
A|--------------------------------5/7-------|
E|------------------------------------------|



A F#m D
e|-----------------|-----0-------0---|-----------------|-----------------|
B|-----2-------2---|---0---0---0---0-|-----2-------2---|-----3-------3---|
G|---2---2---2---2-|-----------------|---2---2---2---2-|---2---2---2---2-|
D|-----------------|-----------------|-----------------|-0-------0-------|
A|-0-------0-------|-----------------|-----------------|-----------------|
E|-----------------|-4-------4-------|-2-------2-------|-----------------|
All that I am is all I was taught to be

A F#m D/B D/C# D A/D D
e|-----------------|-----------------|-----------------|-----------------|---------------|
B|-----2-------2---|-----2-------2---|-----3-------3---|-----3-------2---|---------------|
G|---2---2---2---2-|---2---2---2---2-|---2---2---2---2-|---2---2---2---2-|---------------|
D|-----------------|-----------------|-----------------|-0-------0-------|-0-------------|
A|-0-------0-------|-----------------|-2-------4-------|-----------------|---------------|
E|-----------------|-2-------2-------|-----------------|-----------------|---------------|
All that you are is a wall between myself And me


Have you ever really looked at me
Or thought about me secretly
Do I make you wonder at all about the speed of light
Outside our little world we might not feel so alone

And I know you don't belong in this room
But you're here now so what can I do

All that I am is all I was thaught to be
All that you are is a wall between myself
And me

ProTabs promo.jpg

Onbeperkt en gratis toegang tot alle 25.000
Tabs & Chords en direct meespelen met

Artiest Liedje

...

Gitaarakkoorden ks choice - All

Dankzij de bladmuziek op deze pagina wordt het een stuk makkelijker om met de gitaar mee te spelen met All van ks choice De ProTabs van Gitaartabs worden door onze professionele gitaardocenten samengesteld. De tabs en chords zijn door leden zelf geplaatst. Deze undefined van ks choice met All is voor je geschreven door unknown

Tabs & Chords van ks choice - All

Bij de ProTabs delen we niet alleen de tablatuur maar ook de speelwijze van All Met een beetje gitaar ervaring moet je dit gitaarliedje zeker kunnen spelen, maar als het niet lukt zijn we er altijd om je te helpen. Door een gratis account aan te maken krijg je niet alleen toegang tot deze chords ,akkoorden & tabs van All maar kun je ook onbeperkt meespelen met een van de meer dan 25.000 andere tabs & chords in onze database.

Plaats opmerking

Verstuur

Beoordeel deze song

Rate UsDon’t love itNot greatGoodGreatLove itRate Us

Bedankt voor je beoordeling!