Not an addict

Gitaarliedjes, tabs & akkoorden (chords) Not an addict - ks choice

Songtype: Chords

arrow&v

Markeer als favoriet

Favoriet

Gemarkeerd als favoriet

Capo:

0

ks choice

ks choice

Song
Album
Categorie

Not an addict

Downloads
1801
Niveau
1
Geplaatst door
gitaartabs
ProTabs-promo.jpg

Not an Addict


Mmm-mmm, mmm-mmm, mmm-mmm, mmm-
(no chords) (start bass)

mmm, Mmm-mmm, mmm-mmm, mmm-mmmm, mmm-mmm, mmm-mmm, mmm-mmm
E -----------------------------------------------------------------
B -----------------------------------------------------------------
G -----------------------------------------------------------------
D ---------------------------------------------------------1-2-1---
A -0-0-0-0-0-0-0-0-0-4-4-4-4-4-4-4-4-4-2-2-2-2-2-2-2-2-2-2-------2-
E -----------------------------------------------------------------

Mmm-mmm, mmm-mmm, mmm-mmmm, mmm-mmm, mmm-mmm, mmm-mmm
E -----------------------------------------------------------------
B -----------------------------------------------------------------
G -----------------------------------------------------------------
D ---------------------------------------------------------1-2-1---
A -0-0-0-0-0-0-0-0-0-4-4-4-4-4-4-4-4-4-2-2-2-2-2-2-2-2-2-2-------2-
E -----------------------------------------------------------------

Mmm-mmm, mmm-mmm, mmm-mmmm, mmm-mmm, mmm-mmm, mmmmmm
E -----------------------------------------------------------------
B -----------------------------------------------------------------
G -----------------------------------------------------------------
D ---------------------------------------------------------1-2-1---
A -0-0-0-0-0-0-0-0-0-4-4-4-4-4-4-4-4-4-2-2-2-2-2-2-2-2-2-2-------2-
E -----------------------------------------------------------------

Breathe it in and breathe it out And pass it on, it's almost out
E -----------------------------------------------------------------
B -----------------------------------------------------------------
G -----------------------------------------------------------------
D -----------------------------------------------------------------
A -0-0-0-0-0-0-0-0-0-4-4-4-4-4-4-4-4-4-2-2-2-2-2-2-2-2-2-2-2-2-2-2-
E -----------------------------------------------------------------

We're so creative, so much more We're high above but on the floor
E -----------------------------------------------------------------
B -----------------------------------------------------------------
G -----------------------------------------------------------------
D -----------------------------------------------------------------
A -0-0-0-0-0-0-0-0-0-4-4-4-4-4-4-4-4-4-2-2-2-2-2-2-2-2-2-2-2-2-2-2-
E -----------------------------------------------------------------

It's not a habit, it's cool, I feel alive
E ---------------------------------
B ---------------------------------
G ---------------------------------
D ---------------------------------
A -----------------0-0-0-0-0-0-0-0-
E -0-0-0-0-2-2-2-2-----------------

If you don't have it you're on the other side
E ---------------------------------
B ---------------------------------
G ---------------------------------
D ---------------------------------
A -----------------0-0-0-0-0-0-0-0-
E -0-0-0-0-2-2-2-2-----------------


The deeper you stick it in your vein
The deeper the thoughts, there's no more pain
I'm in heaven, I'm a god
I'm everywhere, I feel so hot

It's not a habit, it's cool, I feel alive
If you don't have it you're on the other side
I'm not an addict (maybe that's a lie)
E -----------------------------------------------------------------
B -----------------------------------------------------------------
G -----------------------------------------------------------------
D ---------------------------------------------------------1-2-1---
A -0-0-0-0-0-0-0-0-4-4-4-4-4-4-4-4-2-2-2-2-2-2-2-2-2-2-2-2-------2-
E -----------------------------------------------------------------

Mmmm-mmmmm, mmmm-mmmmm, mmmm-mmmmm, mmmm-mmmmm

A C#m (bass + chords)
It's over now, I'm cold, alone
B
I'm just a person on my own
A C#m
Nothing means a thing to me oh
B
Nothing means a thing to me

E F# A
It's not a habit, it's cool, I feel alive
E F# A
If you don't have it you're on the other side
E F# A
I'm not an addict maybe that's a lie

E D
Free me, leave me
E ---------------------------------
B ---------------------------------
G ---------------------------------
D -2-2-2-2-2-2-2-2-0-0-0-0-0-0-0-0- all 1/8th notes
A ---------------------------------
E ---------------------------------

B
Watch me as I'm going down
E ---------------------------------
B ---------------------------------
G ---------------------------------
D ---------------------------------
A -2-2-2-2-2-2-2-2-2-2-2-2-2-2-2-2-
E ---------------------------------

E D
Free me, see me
E ---------------------------------
B ---------------------------------
G ---------------------------------
D -2-2-2-2-2-2-2-2-0-0-0-0-0-0-0-0-
A ---------------------------------
E ---------------------------------

B C
Look at me, I'm falling and I'm falling.
E ----------------------------------------------------
B ----------------------------------------------------
G ----------------------------------------------------
D ----------------------------------------------------
A -2-2-2-2-2-2-2-2-2-2-2-2-2-2-2-2-3-3-3-3-3-3-3-3--3-
E ----------------------------------------------------


It is not a habit, it is cool I feel alive I feel...
It is not a habit, it is cool I feel alive


It's not a habit, it's cool, I feel alive
If you don't have it you're on the other side
I'm not an addict maybe that's a lie
I'm not an addict
I'm not an addict
I'm not an addict

ProTabs promo.jpg

Onbeperkt en gratis toegang tot alle 25.000
Tabs & Chords en direct meespelen met

Artiest Liedje

...

Gitaarakkoorden ks choice - Not an addict

Dankzij de bladmuziek op deze pagina wordt het een stuk makkelijker om met de gitaar mee te spelen met Not an addict van ks choice De ProTabs van Gitaartabs worden door onze professionele gitaardocenten samengesteld. De tabs en chords zijn door leden zelf geplaatst. Deze undefined van ks choice met Not an addict is voor je geschreven door gitaartabs

Tabs & Chords van ks choice - Not an addict

Bij de ProTabs delen we niet alleen de tablatuur maar ook de speelwijze van Not an addict Met een beetje gitaar ervaring moet je dit gitaarliedje zeker kunnen spelen, maar als het niet lukt zijn we er altijd om je te helpen. Door een gratis account aan te maken krijg je niet alleen toegang tot deze chords ,akkoorden & tabs van Not an addict maar kun je ook onbeperkt meespelen met een van de meer dan 25.000 andere tabs & chords in onze database.

Plaats opmerking

Beoordeel deze song

Rate UsDon’t love itNot greatGoodGreatLove itRate Us

Bedankt voor je beoordeling!