Stairway to heaven

Gitaarliedjes, tabs & akkoorden (chords) Stairway to heaven - led zeppelin

Songtype: Chords

arrow&v

Markeer als favoriet

Favoriet

Gemarkeerd als favoriet

Capo:

0

led zeppelin

led zeppelin

Song
Album
Categorie

Stairway to heaven

Downloads
1237
Niveau
2
Geplaatst door
gitaartabs
ProTabs-promo.jpg

Stairway to heaven

Intro
Riff 1, Riff 2, Riff 4

Riff 2
There’s a ladie who’s sure, all that glitters is gold, and she’s buying a stairway to hea - ven
Riff 2
When she gets there she knows, if the stores are all closed, with a word she can get what she came for
Riff 3 Dsus4 D
Ooh - , ooh -, and she’s buying a stairway to heaven
C D Fmaj7 Am C D Fmaj7
There’s a sign on the wall, but she wants to be sure, ‘cause you know sometimes words have two meanings
Riff 2 G Am
In a tree by the brook, there’s a songbird who sings, sometimes all of our thoughts are misgiv - en
Riff 2 G Am G Am7 Dsus4 D Am7
Ooh, it makes me wonder,
Em D C D Am7 Dsus4 D Am7 Em D C D
Ooh - , it really makes me wonder

C G/B Am C G/B F Am
There’s a feeling I get, when I look to the west, and my spirit is crying for lea - ving
C G/B Am C G/B F Am
In my thoughts I have seen rings of smoke through the trees, and the voices of those who stand looking
C G/B Am7 Dsus4 D Am7 Em D C D
Ooh, it makes me wonder,
Am7 Dsus4 D Am7 Em D C D
Ooh - , it really makes me wonder

C G Am C G F Am
And it’s whispered that soon, if we all call the tune, then the piper will lead us to reason
C G Am C G F Am
And a new day will dawn, for those who stand long, and the forests will echo with laughter
C G Am7 Dsus4 D Am7 Em D C D Am7 Dsus4 D Am7 Em D C D
Ohoeohoehooeooooooh
C G/B Am C G/B F Am
If there’s a bustle in your hedgerow, don’t be alarmed now, it’s just a springclean for the May queen
C G/B Am C G/B F Am
Yes, there are two paths you can go by, but in the long run, there’s still time to change the road you’re on
C G/B Am7 Dsus4 D Am7 Em D C D Am7 Dsus4 D Am7 Em D C D
And it makes me wonder
C G/B Am C G/B F Am
Your head is humming and it won’t go in case you don’t know, the piper’s calling you to join him
C G/B Am C G/B F Am
Dear lady, can you hear the wind blow, and did you know, your stairway lies on the whispering wind
C G/B Riff 5 [2 x] [Am G F G - repeat]

Am G F G Am G F G Am
And as we wind on down the road, our shadows taller than our soul
G F G Am G F G Am
There walks a lady we all know, who shines white light and wants to show
G F G Am G F G Am
How ev’rything still turns to gold, and if you listen very hard
G F G Am G Fmaj7 Am G Fmaj7
The tune will come to you at last, when all are one and one is all yeah, to be a rock and not to roll
Am Fmaj7
And she’s buying a stairway to heaven


Riff 1
Am G#+ C/G D/F# Fmaj7
e |-----0-------0-------0--------2-------0---------------1-0--|
B |---1-------1-------1--------3-------1---1------------------|
G |-2----2-1-----1-0-----0---2-------2-------2-0-0h2-2-2------|
D |------------------------4-------3--------------------------|
A |-----------------------------------------------------------|
E |-----------------------------------------------------------|

Riff 2
Am G#+ C/G D/F# Fmaj7
e |-----0-------0-------0--------2-------0------------------|
B |---1-------1-------1--------3-------1---1-------------0--|
G |-2----2-1-----1-0-----0---2-------2-------2-0-0h2-2-2----|
D |------------------------4-------3------------------------|
A |---------------------------------------------------------|
E |---------------------------------------------------------|

Riff 3
C D Fmaj7 Am C G Dsus4 D D
e |-------0--------2--------0--------0-------0-------3---3------2---2-|
B |-----1--------3--------1--------1-------1-------0-----3------3---3-|
G |---0--------2--------2--------2-------0-------0-------2------2---2-|
D |---------0--------3--------2----------------0---------0------0---0-|
A |-3----------------------------------3------------------------------|
E |-------------------------------------------------------------------|

Riff 4
C D Fmaj7 Am C D G Am C D Fmaj7 Am C D Fmaj7
e |-------0--------2-------0-------0-------0-------2--3---0----------0--------2-------0------0------0-------2-0----|
B |-----1--------3-------1-------1-------1-------3----0---1---------1-------3-------1-------1------1------3---1----|
G |---0--------2-------2-------2-------0-------2------0---2-------0-------2-------2-------2------0------2-----2----|
D |----------0-------3-------2---------------0--------0---2-------------0-------3-------2-------------0-------3----|
A |-3--------------------------------3----------------2-----0-2-3------------------------------3-------------------|
E |---------------------------------------------------3------------------------------------------------------------|

Riff 4
D Am
e |-2--0--2--4--0--2--4--0--2--4--4--2--0--0--0--0--0--0--0--0--0--0--0--0--|
B |-3--3--3--3--3--3--3--3--3--3--3--3--1--3--3--3--3--1--1--3--3--3--3--1--|
G |-2--2--2--2--2--2--2--2--2--2--2--2--2--2--2--2--2--2--2--2--2--2--2--2--|
D |-0--0--0--0--0--0--0--0--0--0--0--0--2--2--2--2--2--2--2--2--2--2--2--2--|
A |-------------------------------------------------------------------------|
E |-------------------------------------------------------------------------|

ProTabs promo.jpg

Onbeperkt en gratis toegang tot alle 25.000
Tabs & Chords en direct meespelen met

Artiest Liedje

...

Gitaarakkoorden led zeppelin - Stairway to heaven

Dankzij de bladmuziek op deze pagina wordt het een stuk makkelijker om met de gitaar mee te spelen met Stairway to heaven van led zeppelin De ProTabs van Gitaartabs worden door onze professionele gitaardocenten samengesteld. De tabs en chords zijn door leden zelf geplaatst. Deze undefined van led zeppelin met Stairway to heaven is voor je geschreven door gitaartabs

Tabs & Chords van led zeppelin - Stairway to heaven

Bij de ProTabs delen we niet alleen de tablatuur maar ook de speelwijze van Stairway to heaven Met een beetje gitaar ervaring moet je dit gitaarliedje zeker kunnen spelen, maar als het niet lukt zijn we er altijd om je te helpen. Door een gratis account aan te maken krijg je niet alleen toegang tot deze chords ,akkoorden & tabs van Stairway to heaven maar kun je ook onbeperkt meespelen met een van de meer dan 25.000 andere tabs & chords in onze database.

Plaats opmerking

Beoordeel deze song

Rate UsDon’t love itNot greatGoodGreatLove itRate Us

Bedankt voor je beoordeling!