Behind blue eyes

Gitaarliedjes, tabs & akkoorden (chords) Behind blue eyes - limp bizkit

Songtype: Chords

arrow&v

Markeer als favoriet

Favoriet

Gemarkeerd als favoriet

Capo:

0

limp bizkit

limp bizkit

Song
Album
Categorie

Behind blue eyes

Downloads
1626
Niveau
2

Geplaatst door
sander
ProTabs-promo.jpg

VERSE
|----------0-------------------0-----------------0---------------0-----------|
|------------0-------------------3-----------3----3--3------3----3--3--------|
|-------0-----0------------0------0-------2--2----2------2--2----2-----------|
|-----2---------0--------0----------0---0---------------0--------------------|
|---2------------------2-----------------------------------------------------|
|-0------------------3-------------------------------------------------------|

|-----------0------------------0------------------0------------------0-------|
|------3-----3--3--------3------3--3--------0-----0--0-------0------0---0----|
|----0---0----0--------0---0-----0------------2-----2-----------2------2-----|
|-------------------------------------------2-----------------2--------------|
|-3------------------3-------------------0-----------------0-----------------|
|----------------------------------------------------------------------------|

CHORUS
Cadd9 Dsus2
But my dreams
G6
they aren't as empty
Dadd9 Dsus2 Em
As my conscience seems to be
Bsus2
I have hours,
Cadd9
only lonely
Dsus2
My love is vengeance
Asus2
That's never free

__________________________________________________________________

TEKST

No one knows what it's like
To be the bad man
To be the sad man
Behind blue eyes
And no one knows
What it's like to be hated
To be fated to telling only lies

[chorus]
But my dreams they aren't as empty
As my conscience seems to be
I have hours, only lonely
My love is vengeance
That's never free

No one knows what its like
To feel these feelings
Like i do, and i blame you!
No one bites back as hard
On their anger
None of my pain woe
Can show through

[chorus]
But my dreams they aren't as empty
As my conscience seems to be
I have hours, only lonely
My love is vengeance
That's never free


Discover l.i.m.p. say it [x4]
No one knows what its like
To be mistreated, to be defeated
Behind blue eyes
No one know's how to say
That they're sorry and don't worry
I'm not telling lies

[chorus]
But my dreams they aren't as empty
As my conscience seems to be
I have hours, only lonely
My love is vengeance
That's never free


No one knows what its like
To be the bad man, to be the sad man
Behind blue eyes.




ProTabs promo.jpg

Onbeperkt en gratis toegang tot alle 25.000
Tabs & Chords en direct meespelen met

Artiest Liedje

...

Gitaarakkoorden limp bizkit - Behind blue eyes

Dankzij de bladmuziek op deze pagina wordt het een stuk makkelijker om met de gitaar mee te spelen met Behind blue eyes van limp bizkit De ProTabs van Gitaartabs worden door onze professionele gitaardocenten samengesteld. De tabs en chords zijn door leden zelf geplaatst. Deze undefined van limp bizkit met Behind blue eyes is voor je geschreven door sander

Tabs & Chords van limp bizkit - Behind blue eyes

Bij de ProTabs delen we niet alleen de tablatuur maar ook de speelwijze van Behind blue eyes Met een beetje gitaar ervaring moet je dit gitaarliedje zeker kunnen spelen, maar als het niet lukt zijn we er altijd om je te helpen. Door een gratis account aan te maken krijg je niet alleen toegang tot deze chords ,akkoorden & tabs van Behind blue eyes maar kun je ook onbeperkt meespelen met een van de meer dan 25.000 andere tabs & chords in onze database.

Plaats opmerking

Verstuur

Beoordeel deze song

Rate UsDon’t love itNot greatGoodGreatLove itRate Us

Bedankt voor je beoordeling!