Don't let me get me

Gitaarliedjes, tabs & akkoorden (chords) don't let me get me - pink

Songtype: Chords

arrow&v

Markeer als favoriet

Favoriet

Gemarkeerd als favoriet

Capo:

0

pink

pink

Song
Album
Categorie

don't let me get me

Downloads
160
Niveau
1

Geplaatst door
gitaartabs
ProTabs-promo.jpg

Don't let me get me

Gebruikte accoorden:

E (12)(14)(14)(13)(12)(12) / 022100
C#m 9(11)(11)999
B 799877
A 577655


Opmerkingen:

Eb-tuning!


[Intro]
Synth riff

Riff1 (Main riff)
e-12--12--------------9---9---9------7--7--7---7----5--5--5---5---
B-12-----12-----------9-----9---9----7--7--7h9-7----5--5--5h7-5---
G-13--------13h14-13--9--------------8--8--8---8----6--6--6---6---
D-14------------------11-------------9--9--9---9----7--7--7---7---
A-14------------------11-------------9--------------7-------------
E-12------------------9--------------7--------------5-------------
E C#m B A

[Verse1] (Riff1)
E (guitar) C#m
Never win first place_, I don't support the team
B A
I can't take direction, and my socks are never__ clean__
E (hi-hat) C#m
Teachers dated me_, my parents hated me
B A
I was always in a fight cuz I can't do nothin' right

[Pre Chorus]
A (bass/guitar) B
Everyday I fight a war against the mirror
A B [nc]
I can't take the person starin' back at me_ -

[Chorus1]
E
I'm a hazard to my____self__
C#m B A
Don't let me get me, I'm my own worst enemy
E
It's bad when you annoy your___self__
C#m B A
So irritating Don't wanna be my friend no more_ I wanna be somebody
E (quiet) C#m B A
else I wanna be somebody else, yeah

[Verse2]
E C#m
LA told me, "You'll be a pop star,
B A
All you have to change is everything you are."
E C#m
Tired of being compared to damn Britney Spears
B A
She's so pretty, that just ain't me

[Pre Chorus2]
A B
So doctor, doctor won't you please prescribe somethin
A B
A day in the life of someone else___? -

[Chorus2]
E
Cause I'm a hazard to my____self__
C#m B A
Don't let me get me, I'm my own worst enemy
E
It's bad when you annoy your___self__
C#m B A
So irritating Don't wanna be my friend no more_ I wanna be somebody
E C#m B A
else yeaheah Don't let me get me, I'm my own worst enemy
E
It's bad when you annoy your___self__
C#m B A
So irritating Don't wanna be my friend no more_ I wanna be somebody else

[Pre Chorus2]
A B
So doctor, doctor won't you please prescribe somethin
A B [nc]
A day in the life of someone else___? - Don't let me get me

[Solo]
E C#m B A
E C#m B A

eb--------12-------------9-----9-----------------------------------
Bb-----------12-10-9--------9-----9--------------------------------
Gb-4/9-----------------------------------11--11/13--11---9-9-------
Db-----------------------------------------------------------------
Ab-----------------------------------------------------------------
Eb-----------------------------------------------------------------

Eb-------------------------------------------------12h14-12h14p12--
Bb--------------------------------------/14-12---------------------
Gb-------9h11p9---------11brp9-11~~~~~~----------------------------
Db-9h11------------------------------------------------------------
Ab-----------------------------------------------------------------
Eb-----------------------------------------------------------------

[Chorus3]
E
Cause I'm a hazard to my____self__
C#m B A
Don't let me get me, I'm my own worst enemy
E
It's bad when you annoy your___self__
(yourself)
C#m B A
So irritating Don't wanna be my friend no more_ I wanna be somebody
(so irritating no___oh)
E C#m B A
else yeaheah Don't let me get me, I'm my own worst enemy
E
It's bad when you annoy your___self__
C#m B A
So irritating Don't wanna be my friend no more_ I wanna be somebody else

Fade out..

ProTabs promo.jpg

Onbeperkt en gratis toegang tot alle 25.000
Tabs & Chords en direct meespelen met

Artiest Liedje

...

Gitaarakkoorden pink - don't let me get me

Dankzij de bladmuziek op deze pagina wordt het een stuk makkelijker om met de gitaar mee te spelen met don't let me get me van pink De ProTabs van Gitaartabs worden door onze professionele gitaardocenten samengesteld. De tabs en chords zijn door leden zelf geplaatst. Deze undefined van pink met don't let me get me is voor je geschreven door gitaartabs

Tabs & Chords van pink - don't let me get me

Bij de ProTabs delen we niet alleen de tablatuur maar ook de speelwijze van don't let me get me Met een beetje gitaar ervaring moet je dit gitaarliedje zeker kunnen spelen, maar als het niet lukt zijn we er altijd om je te helpen. Door een gratis account aan te maken krijg je niet alleen toegang tot deze chords ,akkoorden & tabs van don't let me get me maar kun je ook onbeperkt meespelen met een van de meer dan 25.000 andere tabs & chords in onze database.

Plaats opmerking

Verstuur

Beoordeel deze song

Rate UsDon’t love itNot greatGoodGreatLove itRate Us

Bedankt voor je beoordeling!