Feel like flying

Gitaarliedjes, tabs & akkoorden (chords) Feel like flying - Racoon

Songtype: Chords

arrow&v

Markeer als favoriet

Favoriet

Gemarkeerd als favoriet

Capo:

0

Racoon

Racoon

Song
Album
Categorie

Feel like flying

Downloads
2072
Niveau
2
Geplaatst door
rick
ProTabs-promo.jpg

Riff I:
x x x x x x x u d d ud
E[----------------|----------------|----------------|--3-3---3--33---]
B[----------------|--1p0h1p0-------|----------------|--1-1---1--11---]
G[----------------|-----------0h2--|----0-----------|--0-0---0--00---]
D[----------0-----|----------------|----------0-----|--2-2---2--22---]
A[-------------3--|----------------|-------------3--|--3-3---3--33---]
E[---h3-h3--------|----------------|------h3--------|----------------]
G C G C*

Riff II:
x x x x x x x d du
E[----------------|----------------|----------------|--------3--33---]
B[----------------|--1p0h1p0-------|----------------|--------1--11---]
G[----------------|-----------0h2--|----0-----------|----0---0-------]
D[----------0-----|----------------|----------0-----|--2-------------]
A[-------------3--|----------------|-------------3--|----------------]
E[---h3-h3--------|----------------|------h3--------|----------------]
G C G C**


[Intro]
G C G C*
yeah
G C G C**

G C G C*
I'm walking home after drinking all my pennies.
G C G C**
So now I've got a beatbox in my head. [beat]
G C G C*
Probably seems funny to you honey, bunny.
G C G C** (silence)
Well it ain't so when I'm home I'm going straight to bed. Woahw!

G C G C*
Walking home and I haven't got a planny.
G C G C**
Because of all the pennies in my head.
G C G C*
Well I'm pretty flip and I'm losing grip rocksteady, Betty.
G C G C**
Pretty fly but I'm alright. I don't need a cigarette, because I


Chorus:
d u d d u d d ud d u d d u d d ud
E[----3--3--------|----------------|----3--3--------|----------------]
B[----3--3--3--1--|--1-1---1--11---|----3--3--3--1--|--1-1---1--11---]
G[----0--0--2--0--|--0-0---0--00---|----0--0--2--0--|--0-0-- 0--00---]
D[----0--0-----2--|--2-2---2--22---|----0--0-----2--|--2-2---2--22---]
A[----2--2-----3--|--3-3---3--33---|----2--2-----3--|--3-3---3--33---]
E[----3--3--------|----------------|----3--3--------|----------------]
G D C C G D C


[Chorus]
G (D) C G (D) C
Feel like flying____________ WOW! Damn right
G (D) C G (D) C
I feel like flying_____________, I've got a rotor on my head.
G (D) C G (D) C
And I feel like flying____________. YEP!
G (D) C G (D) C
Oh i feel like flyiiiiiiiiiiiiiiiiiiiiiiiiiiiiiiiiiiiiiing!

G C G C*
I told a girl her name was pretty silly.
G C G C**
She spit me in the face and stole my chair.
G C G C*
And I just grinned and I said my name was silly looking Billy.
G C G C*
After that my memory kind of stopped right there.


[Bridge]
Am7 C*
Soulful feeling feels like smiling.
Am7 C*
Soulful smiling feels like....

[Chorus]
G (D) C G (D) C
Feel like flying____________ WOW!
G (D) C G (D) C
I feel like flying_____________, I've got a rotor on my head.
G (D) C G (D) C
And I feel like flying____________. YEAH!
G (D) C G (D) C
Oh I feel like flyiiiiiiiiiiiiiiiiiiiiiiiiiiiiiiiiiiiiiing!
D11 Dsus4 C
I'll fly_________
D11 Dsus4 C
I'll fly__________ Vroaar!

G C G C
Falling back into zero conversation.
G C G C
Because besides me there's no one else around.
G C G C
Me myself and I are on a holiday probation.
G C G C (silence)
A dazzle sound awakes me as I walk straight out of town.

G C G C
Walking home as the words role down, my tongue straight to below..
G C G C
I catch them right before they hit the ground.
G C G C
Well I was walking home as the words role down, my tongue straight to below..
G C G C
I catch them right before they hit the ground, you know, you know

[Bridge]
Am7 C*
Soulful feeling feels like smiling.
Am7 C*
Soulful smiling feels like....

[Chorus]
G (D) C G (D) C
Feel like flying____________ WOW!
G (D) C G (D) C
I feel like flying_____________, I've got a rotor on my head.
G (D) C G (D) C
And I feel like flying____________. YEAH!
G (D) C G (D) C
Oh I feel like flyiiiiiiiiiiiiiiiiiiiiiiiiiiiiiiiiiiiiiing!
D11 Dsus4 C
So I'll fly_________ Vroaar!



ProTabs promo.jpg

Onbeperkt en gratis toegang tot alle 25.000
Tabs & Chords en direct meespelen met

Artiest Liedje

...

Gitaarakkoorden Racoon - Feel like flying

Dankzij de bladmuziek op deze pagina wordt het een stuk makkelijker om met de gitaar mee te spelen met Feel like flying van Racoon De ProTabs van Gitaartabs worden door onze professionele gitaardocenten samengesteld. De tabs en chords zijn door leden zelf geplaatst. Deze undefined van Racoon met Feel like flying is voor je geschreven door rick

Tabs & Chords van Racoon - Feel like flying

Bij de ProTabs delen we niet alleen de tablatuur maar ook de speelwijze van Feel like flying Met een beetje gitaar ervaring moet je dit gitaarliedje zeker kunnen spelen, maar als het niet lukt zijn we er altijd om je te helpen. Door een gratis account aan te maken krijg je niet alleen toegang tot deze chords ,akkoorden & tabs van Feel like flying maar kun je ook onbeperkt meespelen met een van de meer dan 25.000 andere tabs & chords in onze database.

Plaats opmerking

Beoordeel deze song

Rate UsDon’t love itNot greatGoodGreatLove itRate Us

Bedankt voor je beoordeling!