Swing life away

Gitaarliedjes, tabs & akkoorden (chords) Swing life away - rise against

Songtype: Chords

arrow&v

Markeer als favoriet

Favoriet

Gemarkeerd als favoriet

Capo:

0

rise against

rise against

Song
Album
Categorie

Swing life away

Downloads
1617
Niveau
2
Geplaatst door
gilerakevie
ProTabs-promo.jpg

Kevin Bruin

Rise Against - Swing Life Away

Tunning: D# G# C# F# Bb d#

G5 Csus Em7 D5 A5
e-3-|-3-|-3-|-3-|-3-|
B-3-|-3-|-3-|-3-|-3-|
G-0-|-0-|-0-|-2-|-0-|
D-0-|-2-|-2-|-0-|-2-|
A-2-|-3-|-2-|-x-|-0-|
E-3-|-x-|-0-|-x-|-x-|


(Intro.)

e|--------------------|
B|-0------------------|
G|----0-----2---0-----| A5 (x3) D5
D|-------0---------4--|
A|--------------------|
E|-0--------3---------|

(Verse 1)
Em7 D5 Csus
Am I loud and clear, or am I breaking up?
Em7 G5 Csus
Am I still your charm, or am I just bad luck?
Em7 G5 Csus D5
Are we getting closer, or are we just getting more lost?
Em7 D5 Csus
I'll show you mine; you show me yours first
Em7 G5 Csus
Let's compare scars, I'll tell you who's....is worse
Em7 G5 Csus D5
Let's unwrite these pages and replace them with our own....words

(Chorus)
Em7 Csus G5 A5
We live on front porches and swing life away,
Em7 Csus G5 A5
We get by just fine here on minimum wage
Em7 Csus G5 A5
If love is a labor I'll slave till the end,
Em7 Csus A5 D5
I won't cross these streets until you hold my hand

(Verse 2)
D5 Em7 D5 Csus
I've been here so long, I think that it's time to move
Em7 G5 Csus
The winter's so cold, summer's over too....soon
Em7 G5 Csus D5
Let's pack our bags and settle down where palm trees grow
Em7 D5 Csus
I've got some friends, some that I hardly know
Em7 G5 Csus
But we've had some times, I wouldn't trade for the world
Em7 D5 Csus D5
We chase these days down with talks of the places that we will....go

(Chorus)

Em7 Csus G5 A5
We live on front porches and swing life away,
Em7 Csus G5 A5
We get by just fine here on minimum wage
Em7 Csus G5 A5
If love is a labor I'll slave till the end,
Em7 Csus A5 D5
I won't cross these streets until you hold my hand
Csus D5
..until you hold my hand

(Solo)
G5 G5 G5 G5
e|----------|------|--0-------|------|--0-------|------|-----------|------|
B|--3--3--3-|------|-----0--1-|------|-----0--1-|------|-----------|------|
G|--0--0--0-|------|----------|------|----------|------|--------0--|------|
D|--2--0--0-|------|----------|------|----------|------|--2--4-----|------|
A|----------|------|----------|------|----------|------|-----------|------|
E|----------|------|----------|------|----------|------|-----------|------|

G5 G5 G5 Em7 G5
e|----------|------|--0-------|------|--0-------|------|------|------|
B|--3--3--3-|------|-----0--1-|------|-----0--1-|------|------|------|
G|--0--0--0-|------|----------|------|----------|------|------|------|
D|--2--0--0-|------|----------|------|----------|------|------|------|
A|----------|------|----------|------|----------|------|------|------|
E|----------|------|----------|------|----------|------|------|------|

Em7 D5
e|------|------------|
B|------|------------|
G|------|------------|
D|------|------------|
A|------|------------|
E|------|------------|


Em7 D5 Csus
I'll show you mine; you show me yours first
Em7 G5 Csus
Let's compare scars, I'll tell you who's is worse
Em7 G5 Csus D5
Let's unwrite these pages and replace them with our own words

(Chorus)

Em7 Csus G5 A5
We live on front porches and swing life away,
Em7 Csus G5 A5
We get by just fine here on minimum wage
Em7 Csus G5 A5
If love is a labor I'll slave till the end,
Em7 Csus A5 D5
I won't cross these streets until you hold my hand

Em7 G5 Csus Em7 G5 Csus
Swing life away, Swing life away,
Em7 G5 A5 Csus Em7 G5 Csus
Swing life away, Swing life away,

e|------------|
B|--0---------|
G|-----0------| G5
D|--------2---|
A|------------|
E|------------|

ProTabs promo.jpg

Onbeperkt en gratis toegang tot alle 25.000
Tabs & Chords en direct meespelen met

Artiest Liedje

...

Gitaarakkoorden rise against - Swing life away

Dankzij de bladmuziek op deze pagina wordt het een stuk makkelijker om met de gitaar mee te spelen met Swing life away van rise against De ProTabs van Gitaartabs worden door onze professionele gitaardocenten samengesteld. De tabs en chords zijn door leden zelf geplaatst. Deze undefined van rise against met Swing life away is voor je geschreven door gilerakevie

Tabs & Chords van rise against - Swing life away

Bij de ProTabs delen we niet alleen de tablatuur maar ook de speelwijze van Swing life away Met een beetje gitaar ervaring moet je dit gitaarliedje zeker kunnen spelen, maar als het niet lukt zijn we er altijd om je te helpen. Door een gratis account aan te maken krijg je niet alleen toegang tot deze chords ,akkoorden & tabs van Swing life away maar kun je ook onbeperkt meespelen met een van de meer dan 25.000 andere tabs & chords in onze database.

Plaats opmerking

Beoordeel deze song

Rate UsDon’t love itNot greatGoodGreatLove itRate Us

Bedankt voor je beoordeling!