Happy

Gitaarliedjes, tabs & akkoorden (chords) Happy - sita

Songtype: Chords

arrow&v

Markeer als favoriet

Favoriet

Gemarkeerd als favoriet

Capo:

3

sita

sita

Song
Album
Categorie

Happy

Downloads
2174
Niveau
1

Geplaatst door
kris peters
ProTabs-promo.jpg

Happy

INTRO + VERSE

Cmaj7 G Em D C G
|---------------|---------------|-------0---2h3-|---------------|
|-------3-------|---------------|-----3---3-----|-1---------0---|
|-----0---0-----|-------------0-|---2-----------|---0---------0-|
|---2-------2---|-----------2---|-0-------------|-----2---0-----|
|-3-----------3-|---2-----2-----|---------------|---------------|
|---------------|-3---2-0-------|---------------|-------3-------|

PRECHORUS

Am C G E
|-0--0--0-0-0-0-|-0--0--0-0-0-0-|-3--3--3-3-3-3-|-0--0--0-0-0-0-|
|-1--1--1-1-1-1-|-1--1--1-1-1-1-|-0--0--0-0-0-0-|-0--0--0-0-0-0-|
|-2--2--2-2-2-2-|-0--0--0-0-0-0-|-0--0--0-0-0-0-|-1--1--1-1-1-1-|
|-2--2--2-2-2-2-|-2--2--2-2-2-2-|-0--0--0-0-0-0-|-2--2--2-2-2-2-|
|-0--0--0-0-0-0-|-3--3--3-3-3-3-|-2--2--2-2-2-2-|-2--2--2-2-2-2-|
|-0--0--0-0-0-0-|-0--3--3-3-3-3-|-3--3--3-3-3-3-|-0--0--0-0-0-0-|
All that matters...

C Em G C
|-0--0--0-0-0-0-|-0--0--0-0-0-0-|-3--3--3-3-3-3-|-0-------0-0---|
|-1--1--1-1-1-1-|-0--0--0-0-0-0-|-0--0--0-0-0-0-|-1-------1-1---|
|-0--0--0-0-0-0-|-0--0--0-0-0-0-|-0--0--0-0-0-0-|-0-------0-0---|
|-2--2--2-2-2-2-|-2--2--2-2-2-2-|-0--0--0-0-0-0-|-2-------2-2---|
|-3--3--3-3-3-3-|-2--2--2-2-2-2-|-2--2--2-2-2-2-|-3-------3-3---|
|-0--0--0-0-0-0-|-0--0--0-0-0-0-|-3--3--3-3-3-3-|-0-------0-0---|

D
|-2---2-2-2-3-3-|
|-3---3-3-3-3-3-|
|-2---2-2-2-2-2-|
|-0---0-0-0-0-0-|
|---------------|
|---------------|
Yeahheahh!

(This sounds great on a acoustic guitar. Play on a electric one just ones
a chord and after that some snares)

CHORUS

Em C G D
|-0-0-0-0-0-0-0-0-|-3-3-3-3-3-3-3-3-|-3-3-3-3-3-3-3-3-|-5-5-5-5-5-5-5-5-|
|-0-0-0-0-0-0-0-0-|-5-5-5-5-5-5-5-5-|-3-3-3-3-3-3-3-3-|-7-7-7-7-7-7-8-7-|
|-0-0-0-0-0-0-0-0-|-5-5-5-5-5-5-5-5-|-4-4-4-4-4-4-4-4-|-7-7-7-7-7-7-7-7-|
|-2-2-2-2-2-2-2-2-|-5-5-5-5-5-5-5-5-|-5-5-5-5-5-5-5-5-|-7-7-7-7-7-7-7-7-|
|-2-2-2-2-2-2-2-2-|-3-3-3-3-3-3-3-3-|-5-5-5-5-5-5-5-5-|-5-5-5-5-5-5-5-5-|
|-0-0-0-0-0-0-0-0-|-3-3-3-3-3-3-3-3-|-3-3-3-3-3-3-3-3-|-5-5-5-5-5-5-5-5-|

(Powerchords sounds much better on a electric guitar)

CHORUS W/POWERCHORDS

Em C G D
|-----------------|-----------------|-----------------|-----------------|
|-----------------|-----------------|-----------------|-----------------|
|-----------------|-5-5-5-5-5-5-5-5-|-----------------|-7-7-7-7-7-7-7-7-|
|-2-2-2-2-2-2-2-2-|-5-5-5-5-5-5-5-5-|-5-5-5-5-5-5-5-5-|-7-7-7-7-7-7-7-7-|
|-2-2-2-2-2-2-2-2-|-3-3-3-3-3-3-3-3-|-5-5-5-5-5-5-5-5-|-5-5-5-5-5-5-5-5-|
|-0-0-0-0-0-0-0-0-|-----------------|-3-3-3-3-3-3-3-3-|-----------------|


BRIDGE

Em C G D
|-0---------------|-3---------------|-3---------------|-2-2-3-3---------|
|-0---------------|-5---------------|-3---------------|-3-3-2-2---------|
|-0---------------|-5---------------|-4---------------|-2-2-3-3---------|
|-2---------------|-5---------------|-5---------------|-----------------|
|-2---------------|-3---------------|-5---------------|-----------------|
|-0---------------|-3---------------|-3---------------|-----------------|
Na na na etc.

|<|*|*

ProTabs promo.jpg

Onbeperkt en gratis toegang tot alle 25.000
Tabs & Chords en direct meespelen met

Artiest Liedje

...

Gitaarakkoorden sita - Happy

Dankzij de bladmuziek op deze pagina wordt het een stuk makkelijker om met de gitaar mee te spelen met Happy van sita De ProTabs van Gitaartabs worden door onze professionele gitaardocenten samengesteld. De tabs en chords zijn door leden zelf geplaatst. Deze undefined van sita met Happy is voor je geschreven door kris peters

Tabs & Chords van sita - Happy

Bij de ProTabs delen we niet alleen de tablatuur maar ook de speelwijze van Happy Met een beetje gitaar ervaring moet je dit gitaarliedje zeker kunnen spelen, maar als het niet lukt zijn we er altijd om je te helpen. Door een gratis account aan te maken krijg je niet alleen toegang tot deze chords ,akkoorden & tabs van Happy maar kun je ook onbeperkt meespelen met een van de meer dan 25.000 andere tabs & chords in onze database.

Plaats opmerking

Verstuur

Beoordeel deze song

Rate UsDon’t love itNot greatGoodGreatLove itRate Us

Bedankt voor je beoordeling!