Be like that (2)

Gitaarliedjes, tabs & akkoorden (chords) Be like that (2) - 3 doors down

Songtype: Tab

arrow&v

Markeer als favoriet

Favoriet

Gemarkeerd als favoriet

Capo:

0

3 doors down

3 doors down

Song
Album
Categorie

Be like that (2)

better life

Downloads
17
Niveau
1
Geplaatst door
sparretak
ProTabs-promo.jpg

Be Like That


3 Doors Down
Track 1



G Dsus2
E E E Q E E E E E E Q E E E
E||-----------3----------------|-----------0-------------|
B||----------------3-----------|-----3----------3--------|
G||-----0-------------0--------|--------2----------2-----|
D||--------0-------------0-----|--0-------------------0--|
A||----------------------------|-------------------------|
E||--3-------------------------|-------------------------|


Em7 Cadd9
E E E E Q E E E E E E Q E E
---------------0----------|-----------------0----------|
------------3-------3-----|--------------3-------3-----|
--------------------------|--0----------------------0--|
---------2-------------2--|-----------2----------------|
------2-------------------|-----3----------------------|
--0-----------------------|----------------------------|


he spends his nights in Calfornia
E E E Q E E E
------------------------------------------3-------------|
-----------------------------------------------3--------|
------------------------------------0-------------0-----|
---------------------------------------0-------------0--|
--------------------------------------------------------|
--3-----------------------------------------------------|


watching the star on the big screen
E E E Q E E E
--------------------------------------------0-------------|
--------------------------------------3----------3--------|
-----------------------------------------2----------2-----|
--0----------------------------------------------------0--|
----------------------------------------------------------|
----------------------------------------------------------|


Then he lies awake and he wonders
E E E E Q E E
---------------------------------------------0----------|
------------------------------------------3-------3-----|
--------------------------------------------------------|
---------------------------------------2-------------2--|
------------------------------------2-------------------|
--0-----------------------------------------------------|


Why can't that be me
E E E E Q E E
--------------------------------0----------|
-----------------------------3-------3-----|
--0-------------------------------------0--|
--------------------------2----------------|
-----------------------3-------------------|
-------------------------------------------|


in his life he is filled with good intentions
E E E Q E E E
------------------------------------------------------3-------------|
-----------------------------------------------------------3--------|
------------------------------------------------0-------------0-----|
---------------------------------------------------0-------------0--|
--------------------------------------------------------------------|
--3-----------------------------------------------------------------|


and a lot of thing not to mention
E E E Q E E E
------------------------------------------0-------------|
-----3-----------------------------------------3--------|
---------------------------------------2----------2-----|
--0--------------------------------------------------0--|
--------------------------------------------------------|
--------------------------------------------------------|


and just before he says good night
E E E E Q E E
----------------------------------------------0----------|
-------------------------------------------3-------3-----|
---------------------------------------------------------|
----------------------------------------2-------------2--|
-------------------------------------2-------------------|
--0------------------------------------------------------|


he looks up and smiles and says
E E E E Q E E
-------------------------------------------0----------|
----------------------------------------3-------3-----|
--0------------------------------------------------0--|
-------------------------------------2----------------|
----------------------------------3-------------------|
------------------------------------------------------|


G Dsus2 Em7
E S S Q S S Q S S Q S S Q E S S E
--3--3-3-3----3-3-0-----0-0-|--0----0-0-0----0--0-0-0--|
--3--3-3-3----3-3-3-----3-3-|--3----3-3-3----3--3-3-3--|
--0--0-0-0----0-0-2-----2-2-|--2----2-2-0----0--0-0-0--|
--0--0-0-0----0-0-0-----0-0-|--0----0-0-2----2--2-2-2--|
--2--2-2-2----2-2-----------|-----------2----2--2-2-2--|
--3--3-3-3----3-3-----------|-----------0----0--0-0-0--|


Cadd9 G G Dsus2
Q E S S E E Q E S S Q S S Q S S
--0-----0--0-0-0--0--3----|--3--3-3-3----3-3-0-----0-0-|
--3-----3--3-3-3--3--3----|--3--3-3-3----3-3-3-----3-3-|
--0-----0--0-0-0--0--0----|--0--0-0-0----0-0-2-----2-2-|
--2-----2--2-2-2--2--0----|--0--0-0-0----0-0-0-----0-0-|
--3-----3--3-3-3--3--2----|--2--2-2-2----2-2-----------|
---------------------3----|--3--3-3-3----3-3-----------|


Em7 Cadd9
Q S S Q E S S E Q E S S E E Q
--0----0-0-0----0--0-0-0--|--0-----0--0-0-0--0-------|
--3----3-3-3----3--3-3-3--|--3-----3--3-3-3--3-------|
--2----2-2-0----0--0-0-0--|--0-----0--0-0-0--0-------|
--0----0-0-2----2--2-2-2--|--2-----2--2-2-2--2-------|
-----------2----2--2-2-2--|--3-----3--3-3-3--3-------|
-----------0----0--0-0-0--|--------------------------|


G Dsus2
E E E Q E E E E E E Q E E E
-----------3----------------|-----------0-------------|
----------------3-----------|-----3----------3--------|
-----0-------------0--------|--------2----------2-----|
--------0-------------0-----|--0-------------------0--|
----------------------------|-------------------------|
--3-------------------------|-------------------------|


Em7 Cadd9
E E E E Q E E E E E E Q E E
---------------0----------|-----------------0----------|
------------3-------3-----|--------------3-------3-----|
--------------------------|--0----------------------0--|
---------2-------------2--|-----------2----------------|
------2-------------------|-----3----------------------|
--0-----------------------|----------------------------|


he spends his nights in Calfornia
E E E Q E E E
------------------------------------------3-------------|
-----------------------------------------------3--------|
------------------------------------0-------------0-----|
---------------------------------------0-------------0--|
--------------------------------------------------------|
--3-----------------------------------------------------|


watching the star on the big screen
E E E Q E E E
--------------------------------------------0-------------|
--------------------------------------3----------3--------|
-----------------------------------------2----------2-----|
--0----------------------------------------------------0--|
----------------------------------------------------------|
----------------------------------------------------------|


Then he lies awake and he wonders
E E E E Q E E
---------------------------------------------0----------|
------------------------------------------3-------3-----|
--------------------------------------------------------|
---------------------------------------2-------------2--|
------------------------------------2-------------------|
--0-----------------------------------------------------|


Why can't that be me
E E E E Q E E
--------------------------------0----------|
-----------------------------3-------3-----|
--0-------------------------------------0--|
--------------------------2----------------|
-----------------------3-------------------|
-------------------------------------------|


in his life he is filled with good intentions
E E E Q E E E
------------------------------------------------------3-------------|
-----------------------------------------------------------3--------|
------------------------------------------------0-------------0-----|
---------------------------------------------------0-------------0--|
--------------------------------------------------------------------|
--3-----------------------------------------------------------------|


and a lot of thing not to mention
E E E Q E E E
------------------------------------------0-------------|
-----3-----------------------------------------3--------|
---------------------------------------2----------2-----|
--0--------------------------------------------------0--|
--------------------------------------------------------|
--------------------------------------------------------|


and just before he says good night
E E E E Q E E
----------------------------------------------0----------|
-------------------------------------------3-------3-----|
---------------------------------------------------------|
----------------------------------------2-------------2--|
-------------------------------------2-------------------|
--0------------------------------------------------------|


he looks up and smiles and says
E E E E Q E E
-------------------------------------------0----------|
----------------------------------------3-------3-----|
--0------------------------------------------------0--|
-------------------------------------2----------------|
----------------------------------3-------------------|
------------------------------------------------------|


G Dsus2 Em7
E S S Q S S Q S S Q S S Q E S S E
--3--3-3-3----3-3-0-----0-0-|--0----0-0-0----0--0-0-0--|
--3--3-3-3----3-3-3-----3-3-|--3----3-3-3----3--3-3-3--|
--0--0-0-0----0-0-2-----2-2-|--2----2-2-0----0--0-0-0--|
--0--0-0-0----0-0-0-----0-0-|--0----0-0-2----2--2-2-2--|
--2--2-2-2----2-2-----------|-----------2----2--2-2-2--|
--3--3-3-3----3-3-----------|-----------0----0--0-0-0--|


Cadd9 G G Dsus2
Q E S S E E Q E S S Q S S Q S S
--0-----0--0-0-0--0--3----|--3--3-3-3----3-3-0-----0-0-|
--3-----3--3-3-3--3--3----|--3--3-3-3----3-3-3-----3-3-|
--0-----0--0-0-0--0--0----|--0--0-0-0----0-0-2-----2-2-|
--2-----2--2-2-2--2--0----|--0--0-0-0----0-0-0-----0-0-|
--3-----3--3-3-3--3--2----|--2--2-2-2----2-2-----------|
---------------------3----|--3--3-3-3----3-3-----------|


Em7 Cadd9
Q S S Q E S S E Q E S S E E Q
--0----0-0-0----0--0-0-0--|--0-----0--0-0-0--0-------||
--3----3-3-3----3--3-3-3--|--3-----3--3-3-3--3-------||
--2----2-2-0----0--0-0-0--|--0-----0--0-0-0--0-------||
--0----0-0-2----2--2-2-2--|--2-----2--2-2-2--2-------||
-----------2----2--2-2-2--|--3-----3--3-3-3--3-------||
-----------0----0--0-0-0--|--------------------------||




Duration Legend
---------------
W - whole
H - half
Q - quarter
E - 8th
S - 16th
T - 32nd
X - 64th
. - note dotted
|-n-| - n-tuplets

voor tips of klachten| sparretak@live.nl

ProTabs promo.jpg

Onbeperkt en gratis toegang tot alle 25.000
Tabs & Chords en direct meespelen met

Artiest Liedje

...

Gitaarakkoorden 3 doors down - Be like that (2)

Dankzij de bladmuziek op deze pagina wordt het een stuk makkelijker om met de gitaar mee te spelen met Be like that (2) van 3 doors down De ProTabs van Gitaartabs worden door onze professionele gitaardocenten samengesteld. De tabs en chords zijn door leden zelf geplaatst. Deze undefined van 3 doors down met Be like that (2) is voor je geschreven door sparretak

Tabs & Chords van 3 doors down - Be like that (2)

Bij de ProTabs delen we niet alleen de tablatuur maar ook de speelwijze van Be like that (2) Met een beetje gitaar ervaring moet je dit gitaarliedje zeker kunnen spelen, maar als het niet lukt zijn we er altijd om je te helpen. Door een gratis account aan te maken krijg je niet alleen toegang tot deze tab ,akkoorden & tabs van Be like that (2) maar kun je ook onbeperkt meespelen met een van de meer dan 25.000 andere tabs & chords in onze database.

Plaats opmerking

Beoordeel deze song

Rate UsDon’t love itNot greatGoodGreatLove itRate Us

Bedankt voor je beoordeling!