Hand in my pocket

Gitaarliedjes, tabs & akkoorden (chords) Hand in my pocket - alanis morissette

Songtype: Tab

arrow&v

Markeer als favoriet

Favoriet

Gemarkeerd als favoriet

Capo:

0

alanis morissette

alanis morissette

Song
Album
Categorie

Hand in my pocket

Downloads
1703
Niveau
1
jagged little pill

Geplaatst door
tess
ProTabs-promo.jpg

Hoi allemaal!
Dit liedje is goed akkoestisch te spelen.
Je kan de Chorus ook helemaal met alleen de G spelen.
Dat klinkt ook wel leuk, maar dan kun je niet met het nummer meespelen.
Als je vragen hebt, stel ze maar 
En een capo heb je niet nodig ;)
Succes!

G = 320033
Gsus = 200033
Em7 = 022033
Cadd9 = x32033
F = xx3210
C = x30210

Verse:
G G Gsus Gsus Em7 Em7 Cadd9 G
e|-----3-|-----3-|-----3-|-----3-|-----3-|-----3-|-----3-|-----3-|
B|----3--|----3--|----3--|----3--|----3--|----3--|----3--|----3--|
G|---0---|---0---|---0---|---0---|---0---|---0---|---0---|---0---|
D|-------|-------|-------|-------|-------|-------|-------|-------|
A|-------|-------|-------|-------|--2----|--2----|--3----|-------|
E|--3----|--3----|--2----|--2----|-------|-------|-------|--3----|

Chrous:
F F C C G G G G
e|-----0-|-----0-|-----0-|-----0-|-----3-|-----3-|-----3-|-----3-|
B|----1--|----1--|----1--|----1--|----3--|----3--|----3--|----3--|
G|---2---|---2---|---2---|---2---|---0---|---0---|---0---|---0---|
D|--3----|--3----|-------|-------|-------|-------|-------|-------|
A|-------|-------|--3----|--3----|-------|-------|-------|-------|
E|-------|-------|-------|-------|--3----|--3----|--3----|--3----|

F F C Cadd9 G G G G
e|-----0-|-----0-|-----0-|-----3-|-----3-|-----3-|-----3-|-----3-|
B|----1--|----1--|----1--|----3--|----3--|----3--|----3--|----3--|
G|---2---|---2---|---2---|---0---|---0---|---0---|---0---|---0---|
D|--3----|--3----|-------|-------|-------|-------|-------|-------|
A|-------|-------|--3----|--3----|-------|-------|-------|-------|
E|-------|-------|-------|-------|--3----|--3----|--3----|--3----|


Verse:
G Gsus
I'm broke but I'm happy, I'm poor but I'm kind
Em7 Cadd9 G
I'm short but I'm healthy, yeah
G Gsus
I'm high but I'm grounded, I'm sane but I'm overwhelmed
Em7 Cadd9 G
I'm lost but I'm hopeful, baby

Chorus:
F
And what it all comes down to
C G
Is that everything's gonna be fine, fine, fine
F
Cause I got one hand in my pocket
C Cadd9 G
And the other one is givin' a high five

Verse:
G Gsus
I feel drunk but I'm sober, I'm young and I'm underpaid
Em7 Cadd9 G
I'm dyin' but I'm workin', yeah
G Gsus
I care but I'm restless, I'm here but I'm really gone
Em7 Cadd9 G
I'm wrong and I'm sorry, baby

Chorus:
F
And what it all comes down to
C G
Is that ev'rything's gonna be quite alright
F
Cause I got one hand in my pocket
C Cadd9 G
And the other one is flickin' a cigarette

F
And what it all comes down to
C G
Is that I haven't got it all figured out just yet
F
Cause I got one hand in my pocket
C Cadd9 G
And the other one is givin' a peace sign

Verse:
G Gsus
I'm free but I'm focused, I'm green but I'm wise
Em7 Cadd9 G
I'm hard but I'm friendly, baby
G Gsus
I'm sad but I'm laughin', I'm brave but I'm chickenshit
Em7 Cadd9 G
I'm sick but I'm pretty, baby

Chorus:
F
And what it all boils down to
C G
Is that no one's really got it figured out just yet
F
Cause I got one hand in my pocket
C Cadd9 G
And the other one is playin' a piano

F
And what it all comes down to, my dear friend, yeah
C G
Is that everything is just fine, fine, fine, fine
F
Cause I got one hand in my pocket
C Cadd9 G
And the other one is hailing a taxi cab

ProTabs promo.jpg

Onbeperkt en gratis toegang tot alle 25.000
Tabs & Chords en direct meespelen met

Artiest Liedje

...

Gitaarakkoorden alanis morissette - Hand in my pocket

Dankzij de bladmuziek op deze pagina wordt het een stuk makkelijker om met de gitaar mee te spelen met Hand in my pocket van alanis morissette De ProTabs van Gitaartabs worden door onze professionele gitaardocenten samengesteld. De tabs en chords zijn door leden zelf geplaatst. Deze undefined van alanis morissette met Hand in my pocket is voor je geschreven door tess

Tabs & Chords van alanis morissette - Hand in my pocket

Bij de ProTabs delen we niet alleen de tablatuur maar ook de speelwijze van Hand in my pocket Met een beetje gitaar ervaring moet je dit gitaarliedje zeker kunnen spelen, maar als het niet lukt zijn we er altijd om je te helpen. Door een gratis account aan te maken krijg je niet alleen toegang tot deze tab ,akkoorden & tabs van Hand in my pocket maar kun je ook onbeperkt meespelen met een van de meer dan 25.000 andere tabs & chords in onze database.

Plaats opmerking

Verstuur

Beoordeel deze song

Rate UsDon’t love itNot greatGoodGreatLove itRate Us

Bedankt voor je beoordeling!