Intro (circle of smile)

Gitaarliedjes, tabs & akkoorden (chords) Intro (circle of smile) - baantjer

Songtype: Tab

arrow&v

Markeer als favoriet

Favoriet

Gemarkeerd als favoriet

Capo:

0

baantjer

baantjer

Song
Album
Categorie

Intro (circle of smile)

Downloads
5554
Niveau
1

Geplaatst door
luckynl
ProTabs-promo.jpg

Nu de volledige tab zoals het hier te horen is:
http://www.youtube.com/watch?v=U5ClCoUlz4E

Veel plezier ermee!

Legenda
----------------
h - hammer-on
p - pull-off

W = wijsvinger
M = Middelvinger
R = Ringvinger
----------------

De eerste 2 noten houd ik me wijsvinger over beide frets.
W W M R M W M R R M W M R M W
e|------5-7-8------5-7-8--------5-7-8-7-5----------------
B|----5----------6------------7--------------------------
G|--------------------------8----------------------------
D|-------------------------------------------------------
A|-------------------------------------------------------
E|-------------------------------------------------------

W W M R M W M R W R M M W M
e|-----10-12-13-------10-12-13--12-15-13-12-11-12--------
B|--10-------------11------------------------------------
G|-------------------------------------------------------
D|-------------------------------------------------------
A|-------------------------------------------------------
E|-------------------------------------------------------

W W M R M W M R R M W M R M W
e|------5-7-8------5-7-8--------5-7-8-7-5----------------
B|----5----------6------------7--------------------------
G|--------------------------8----------------------------
D|-------------------------------------------------------
A|-------------------------------------------------------
E|-------------------------------------------------------

W W M R M R M W M W W M
e|-----10-12-13-12-15-13-12h13p12-11-12------------------
B|--10---------------------------------------------------
G|-------------------------------------------------------
D|-------------------------------------------------------
A|-------------------------------------------------------
E|-------------------------------------------------------

Update 11/11/09
- YouTube referentie video toegevoegd.

Update 03/08/10
- Tab aangepast vanwege ontbreken 2 noten. Met dank aan gebruiker: De Maatschappij
- Letters boven iedere noot voor welke vinger gebruikt kan worden. Dit is zoals ik het zelf speel.

ProTabs promo.jpg

Onbeperkt en gratis toegang tot alle 25.000
Tabs & Chords en direct meespelen met

Artiest Liedje

...

Gitaarakkoorden baantjer - Intro (circle of smile)

Dankzij de bladmuziek op deze pagina wordt het een stuk makkelijker om met de gitaar mee te spelen met Intro (circle of smile) van baantjer De ProTabs van Gitaartabs worden door onze professionele gitaardocenten samengesteld. De tabs en chords zijn door leden zelf geplaatst. Deze undefined van baantjer met Intro (circle of smile) is voor je geschreven door luckynl

Tabs & Chords van baantjer - Intro (circle of smile)

Bij de ProTabs delen we niet alleen de tablatuur maar ook de speelwijze van Intro (circle of smile) Met een beetje gitaar ervaring moet je dit gitaarliedje zeker kunnen spelen, maar als het niet lukt zijn we er altijd om je te helpen. Door een gratis account aan te maken krijg je niet alleen toegang tot deze tab ,akkoorden & tabs van Intro (circle of smile) maar kun je ook onbeperkt meespelen met een van de meer dan 25.000 andere tabs & chords in onze database.

Plaats opmerking

Verstuur

Beoordeel deze song

Rate UsDon’t love itNot greatGoodGreatLove itRate Us

Bedankt voor je beoordeling!