Breath

Gitaarliedjes, tabs & akkoorden (chords) Breath - breaking benjamin

Songtype: Tab

arrow&v

Markeer als favoriet

Favoriet

Gemarkeerd als favoriet

Capo:

0

breaking benjamin

breaking benjamin

Song
Album
Categorie

Breath

Downloads
287
Niveau
2
Geplaatst door
[b]lack[a]ngel
ProTabs-promo.jpg

Ok.. DIt is echt een geweldig lied, de tekst maar ook zeker de begleiding. Suc6 drmee

Intro Gitaar 1 (Ben): 00:00 (Clean)
C|---------------------------------------------|
G|---------------------------------------------|
Eb|---------------------------------------------|
Bb|--9-9-9-9-xx-9--9--10---9-9-9-9-xx-9--9--10--|
F|--7-7-7-7-xx-7--7--7----7-7-7-7-xx-7--7--7---|
Bb|--7-7-7-7-xx-7--7--7----7-7-7-7-xx-7--7--7---|

Gitaar 1: 00:05 (Distorted)
C|--------------------------------------------|
G|--------------------------------------------|
Eb|--------------------------------------------|
Bb|--10----10-10--10-10----9-----9--9---9--9---|
F|--10----10-10--10-10----10----10-10--10-10--|
Bb|--10----10-10--10-10----9-----9--9---9--9---|

Gitaar 2 (Aaron): 00:05 (Distorted)
C|--15-------------------15-------------------|
G|----17-15-17h18-17-------17-15-17h18-17-----|
Eb|-------------------17-------------------17--|
Bb|--------------------------------------------|
F|--------------------------------------------|
Bb|--------------------------------------------|

Gitaar 1: 00:10 (Distorted)
C|---------------------------------------------|
G|---------------------------------------------|
Eb|---------------------------------------------|
Bb|--9-9-9-9-xx-9--9--10---9-9-9-9-xx-9--9--10--|
F|--7-7-7-7-xx-7--7--7----7-7-7-7-xx-7--7--7---|
Bb|--7-7-7-7-xx-7--7--7----7-7-7-7-xx-7--7--7---|

Gitaar 2: 00:10 (Distorted)
C|--19---------20----19---19---------20----19--|
G|------20--------20----------20--------20-----|
Eb|---------------------------------------------|
Bb|---------------------------------------------|
F|---------------------------------------------|
Bb|---------------------------------------------|

Gitaar 1: 00:16 (Distorted)
C|---------------------------------------------|
G|---------------------------------------------|
Eb|---------------------------------------------|
Bb|--10----10-10--10-10----9-----9--9---9--9----|
F|--10----10-10--10-10----10----10-10--10-10---|
Bb|--10----10-10--10-10----9-----9--9---9--9----|

Gitaar 2: 00:16 (Distorted)
C|---------------12-------10-------------------|
G|--13---------------------------------12---10-|
Eb|--------12--------------------12-------------|
Bb|---------------------------------------------|
F|---------------------------------------------|
Bb|---------------------------------------------|


Couplet 1 Gitaar 1: 00:21
C|---------------------------------------------|
G|---------------------------------------------|
Eb|---------------------------------------------|
Bb|---------------------------------------------|
F|--7-----------------------7------------------|
Bb|--7-----------------------7------------------|

Couplet 1 Gitaar 2: 00:21 (clean)
C|--------8----7----0-------------8----7----8--|
G|-----10---10---10------------10---10---10----|
Eb|---9-----------------------9-----------------|
Bb|---------------------------------------------|
F|---------------------------------------------|
Bb|---------------------------------------------|

Gitaar 1: 00:31
C|---------------------------------------------|
G|---------------------------------------------|
Eb|---------------------------------------------|
Bb|--10-----------------------------------------|
F|--8----------------------7-------------------|
Bb|-------------------------7-------------------|

Gitaar 2: 00:31
C|------------8------------------8----7-----0--|
G|------8--10---8-8h10--------10---10---10-----|
Eb|---10---------------------9------------------|
Bb|---------------------------------------------|
F|---------------------------------------------|
Bb|---------------------------------------------|

Gitaar 1: 00:42
C|---------------------------------------------|
G|---------------------------------------------|
Eb|---------------------------------------------|
Bb|---------------------------------------------|
F|--7-----------------------7------------------|
Bb|--7-----------------------7------------------|

Gitaar 2: 00:42
C|--------8----7----0-------------8----7----8--|
G|-----10---10---10------------10---10---10----|
Eb|---9-----------------------9-----------------|
Bb|---------------------------------------------|
F|---------------------------------------------|
Bb|---------------------------------------------|

Gitaar 1: 00:52
C|---------------------------------------------|
G|---------------------------------------------|
Eb|---------------------------------------------|
Bb|--10-----------------------------------------|
F|--8----------------------7-------------------|
Bb|-------------------------7-------------------|

Gitaar 2: 00:53
C|------------8------------------8----7-----8--|
G|------8--10---8-8h10--------10---10---10-----|
Eb|---10---------------------9------------------|
Bb|---------------------------------------------|
F|---------------------------------------------|
Bb|---------------------------------------------|

Pre-Chorus: 01:02 (beide Gitaren)
C|---------------------------------------------|
G|-----------5555------5555------5555----------|
Eb|-------------------------222222-----2---2-4--|
Bb|--xxx333333----333333----222222-----2---2-4--|
F|--xxx333333----333333----000000-----0-2-0-2--|
Bb|--xxx333333----333333-----------------2------|

01:13
C|----------------------------------------------------|
G|----------------------------------------------------|
Eb|----------------------------------------------------|
Bb|--3-3333-xxx-3-333333-10-10101010-1010101010-10-9---|
F|--3-3333-xxx-3-333333-10-10101010-1010101010-10-10--|
Bb|--3-3333-xxx-3-333333-10-10101010-1010101010-10-9---|
^----Acoustic Srumming----^
Gitaar 2 tijdens strumming: 01:19
C|----------------------------------------------------|
G|----------------------8888888888-5-5\888888888888---|
Eb|----------------------------------------------------|
Bb|----------------------------------------------------|
F|----------------------------------------------------|
Bb|----------------------------------------------------|

Refrein Gitaar 1: 01:24
C|-----------------------------------------|
G|-----------------------------------------|
Eb|-----------------------------------------|
Bb|--xxx7-777--7-777-7--2-3-33-3-33-5-5--5--|
F|--xxx7-777--7-777-7--2-3-33-3-33-5-5--5--|
Bb|--xxx7-777--7-777-7--2-3-33-3-33-5-5--5--|

Refrein Gitaar 2: 01:24 (distorted)
C|-----------------------------------------------7777---|
G|--10101010101010101010-88-10101010101010101010--------|
Eb|------------------------------------------------------|
Bb|------------------------------------------------------|
F|------------------------------------------------------|
Bb|------------------------------------------------------|

C|--8888888888-77-888888888888-10101010101010101010-10--|
G|------------------------------------------------------|
Eb|------------------------------------------------------|
Bb|------------------------------------------------------|
F|------------------------------------------------------|
Bb|------------------------------------------------------|

Couplet gitaar 1: 01:39
C|---------------------------------------------|
G|---------------------------------------------|
Eb|---------------------------------------------|
Bb|---------------------------------------------|
F|--7------------------------------------------|
Bb|--7------------------------------------------|

gitaar 2: 01:40 (open)
C|--------8----7----0--------------------------|
G|-----10---10---10----------------------------|
Eb|---9-----------------------------------------|
Bb|---------------------------------------------|
F|---------------------------------------------|
Bb|---------------------------------------------|

Couplet 2 gitaar 1: 01:45
C|---------------------------------------------|
G|---------------------------------------------|
Eb|---------------------------------------------|
Bb|---------------------------------------------|
F|--7-----------------------7------------------|
Bb|--7-----------------------7------------------|

Couplet 2 gitaar 2: 01:45
C|--------8----7----0-------------8----7----8--|
G|-----10---10---10------------10---10---10----|
Eb|---9-----------------------9-----------------|
Bb|---------------------------------------------|
F|---------------------------------------------|
Bb|---------------------------------------------|

GItaar 1: 01:55
C|---------------------------------------------|
G|---------------------------------------------|
Eb|---------------------------------------------|
Bb|--10-----------------------------------------|
F|--8----------------------7-------------------|
Bb|-------------------------7-------------------|

Gitaar 2: 01:55
C|------------8------------------8----7-----8--|
G|------8--10---8-8h10--------10---10---10-----|
Eb|---10---------------------9------------------|
Bb|---------------------------------------------|
F|---------------------------------------------|
Bb|---------------------------------------------|

Pre-Chorus: 02:05
C|---------------------------------------------|
G|-----------5555------5555------5555----------|
Eb|-------------------------222222-----2---2-4--|
Bb|--xxx333333----333333----222222-----2---2-4--|
F|--xxx333333----333333----000000-----0-2-0-2--|
Bb|--xxx333333----333333-----------------2------|

02:16
C|-----------------------|
G|-----------------------|
Eb|-----------------------|
Bb|--3-3333-xxx-3-333333--|
F|--3-3333-xxx-3-333333--|
Bb|--3-3333-xxx-3-333333--|

Pre-Chorus/Refrein Gitaar 1: 02:21
C|-----------------------------|
G|-----------------------------|
Eb|-----------------------------|
Bb|--10--xx1010--10--xx1010-9---|
F|--10--xx1010--10--xx1010-10--|
Bb|--10--xx1010--10--xx1010-9---|

Gitaar 2 tijdens pre-chorus: 02:22 (distorted)
C|-------------------------------|
G|--8888888888-5-5\888888888888--|
Eb|-------------------------------|
Bb|-------------------------------|
F|-------------------------------|
Bb|-------------------------------|

Refrein gitaar 1: 02:26
C|---------------------------------------------|
G|---------------------------------------------|
Eb|---------------------------------------------|
Bb|--7xx-777--7xx-777-7--2-3-33-3-33-5-5--5555--|
F|--7xx-777--7xx-777-7--2-3-33-3-33-5-5--5555--|
Bb|--7xx-777--7xx-777-7--2-3-33-3-33-5-5--5555--|

Refrein gitaar 2: 02:27
C|-----------------------------------------------7777--|
G|--10101010101010101010-88-10101010101010101010-------|
Eb|-----------------------------------------------------|
Bb|-----------------------------------------------------|
F|-----------------------------------------------------|
Bb|-----------------------------------------------------|

C|--8888888888-77-888888888888-1010101010101010-8-8h10-10--|
G|---------------------------------------------------------|
Eb|---------------------------------------------------------|
Bb|---------------------------------------------------------|
F|---------------------------------------------------------|
Bb|---------------------------------------------------------|

Gitaar 1: 02:42
C|------------------------------------------------------|
G|------------------------------------------------------|
Eb|------------------------------------------------------|
Bb|--7-xxx7-7--xxxxx3-xxx3-3--xxxxx5-xxx5-5--xxxxx3-333--|
F|--7-xxx7-7--xxxxx3-xxx3-3--xxxxx5-xxx5-5--xxxxx3-333--|
Bb|--7-xxx7-7--xxxxx3-xxx3-3--xxxxx5-xxx5-5--xxxxx3-333--|

Gitaar 2: 02:42
C|--------------------------------------------------------------|
G|--10-1010-1010------------------------------------------------|
Eb|---------------9-99-9-10-1010-1010-10-9-99-9--7-77-77-9-99-9--|
Bb|--------------------------------------------------------------|
F|--------------------------------------------------------------|
Bb|--------------------------------------------------------------|

C|--------------------------------------------11/12-10-----|
G|-----------------------------------------------------12--|
Eb|--10-1010-9--5---5---4---7-------------------------------|
Bb|---------------7---7---7---7-7----7----7-----------------|
F|---------------------------------------------------------|
Bb|---------------------------------------------------------|

Gitaar 1: 02:53
C|------------------------------------------|
G|------------------------------------------|
Eb|-----------------------55555555-44444444--|
Bb|--77777--33333--55555--55555555-55555555--|
F|--77777--33333--55555--33333333-22222222--|
Bb|--77777--33333--55555---------------------|
pmpmpmpm pmpmpmpm

Refrein Gitaar 1: 03:04
C|-----------------------------------------------------------|
G|-----------------------------------------------------------|
Eb|-----------------------------------------------------------|
Bb|--10-10101010-1010-9---7-777-77-7--2--3-333-33--5-555-555--|
F|--10-10101010-1010-10--7-777-77-7--2--3-333-33--5-555-555--|
Bb|--10-10101010-1010-9---7-777-77-7--2--3-333-33--5-555-555--|

Refrein Gitaar 2: 03:04
C|-----------------------------------------------------|
G|--13--13-15-13-12--13--13-15-13-12--13--13-15-13-12--|
Eb|----12---------------12---------------12-------------|
Bb|-----------------------------------------------------|
F|-----------------------------------------------------|
Bb|-----------------------------------------------------|

C|---------------------------------------------------------|
G|--13--13-15-13-15--17-15-17-18-17-15--17-15-17-18-17-15--|
Eb|----12---------------------------------------------------|
Bb|---------------------------------------------------------|
F|---------------------------------------------------------|
Bb|---------------------------------------------------------|

C|------------------------------|
G|--13--13-15-13-12--13--13-12--|
Eb|----12---------------12-------|
Bb|------------------------------|
F|------------------------------|
Bb|------------------------------|

Outro Gitaar 1: 03:24
C|---------------------|
G|---------------------|
Eb|---------------------|
Bb|--7------------------|
F|--7------------------|
Bb|--7------------------|

Gitaar 2: 03:25 (open)
C|--------8----7----0--|
G|-----10---10---10----|
Eb|---9-----------------|
Bb|---------------------|
F|---------------------|
Bb|---------------------|

ProTabs promo.jpg

Onbeperkt en gratis toegang tot alle 25.000
Tabs & Chords en direct meespelen met

Artiest Liedje

...

Gitaarakkoorden breaking benjamin - Breath

Dankzij de bladmuziek op deze pagina wordt het een stuk makkelijker om met de gitaar mee te spelen met Breath van breaking benjamin De ProTabs van Gitaartabs worden door onze professionele gitaardocenten samengesteld. De tabs en chords zijn door leden zelf geplaatst. Deze undefined van breaking benjamin met Breath is voor je geschreven door [b]lack[a]ngel

Tabs & Chords van breaking benjamin - Breath

Bij de ProTabs delen we niet alleen de tablatuur maar ook de speelwijze van Breath Met een beetje gitaar ervaring moet je dit gitaarliedje zeker kunnen spelen, maar als het niet lukt zijn we er altijd om je te helpen. Door een gratis account aan te maken krijg je niet alleen toegang tot deze tab ,akkoorden & tabs van Breath maar kun je ook onbeperkt meespelen met een van de meer dan 25.000 andere tabs & chords in onze database.

Plaats opmerking

Beoordeel deze song

Rate UsDon’t love itNot greatGoodGreatLove itRate Us

Bedankt voor je beoordeling!