Bewitched

Gitaarliedjes, tabs & akkoorden (chords) Bewitched - candlemass

Songtype: Tab

arrow&v

Markeer als favoriet

Favoriet

Gemarkeerd als favoriet

Capo:

0

candlemass

candlemass

Song
Album
Categorie

Bewitched

Downloads
667
Niveau
2
Geplaatst door
gitaartabs
ProTabs-promo.jpg

Intro/Couplet
e|---------------------------------------------------------------------|
B|---------------------------------------------------------------------|
G|---------------------------------------------------------------------|
D|---------------------------------------------------------------------|
A|-5/7--7--6-3--2---------5/7--7--8--7--10-----------------------------|
E|-3/5--5--4-1--0---------3/5--5--6--5--8------------------------------|

e|---------------------------------------------------------------------|
B|---------------------------------------------------------------------|
G|---------------------------------------------------------------------|
D|---------------------------------------------------------------------|
A|-2-----------3-2-2---------------------------------------------------|
E|-0---3/6--5--1-0-0-3/6-5-6-8-----------------------------------------|

e|---------------------------------------------------------------------|
B|---------------------------------------------------------------------|
G|---------------------------------------------------------------------|
D|---------------------------------------------------------------------|
A|-5/7--7--6-3--2---------5/7--7--8--7--10-----------------------------|
E|-3/5--5--4-1--0---------3/5--5--6--5--8------------------------------|

Refrein
e|---------------------------------------------------------------------|
B|---------------------------------------------------------------------|
G|---------------------------------------------------------------------|
D|---------------------------------------------------------------------|
A|---4~---5-4-2-4-5---5/9--8--2-4----2-2-2-2---------------------------|
E|--------3-2-0-2-3---3/7--6--3-2----0-0-0-0---------------------------|

e|---------------------------------------------------------------------|
B|---------------------------------------------------------------------|
G|---------------------------------------------------------------------|
D|---------------------------------------------------------------------|
A|-4-5--9-8--5---2-1-------4~------------------------------------------|
E|-2-3--7-6--3-------3-2-----------------------------------------------|

e|---------------------------------------------------------------------|
B|---------------------------------------------------------------------|
G|---------------------------------------------------------------------|
D|---------------------------------------------------------------------|
A|--------5-4-2-4-5---5/9--8--2-4----2-2-2-2---------------------------|
E|--------3-2-0-2-3---3/7--6--3-2----0-0-0-0---------------------------|

e|---------------------------------------------------------------------|
B|---------------------------------------------------------------------|
G|---------------------------------------------------------------------|
D|---------------------------------------------------------------------|
A|-4-5--9-8--5---2-1---------------------------------------------------|
E|-2-3--7-6--3-------3-------------------------------------------------|

e|---------------------------------------------------------------------|
B|---------------------------------------------------------------------|
G|---------------------------------------------------------------------|
D|---------------------------------------------------------------------|
A|-2-4-5-4-5-7-8-7-5-4-3----------2-4-5-4-5-7-8-7-5--------------------|
E|-0-2-3-2-3-5-6-5-3-2-1---X3-----0-2-3-2-3-5-6-5-3........------------|

e|---------------------------------------------------------------------|
B|---------------------------------------------------------------------|
G|---------------------------------------------------------------------|
D|---------------------------------------------------------------------|
A|-4-4-4-4-3-3-3-3-4-4-4-4-3-3-3-3-7-7-7-7-6-6-6-6-7-7-7-7-6-6-6-6-----|
E|-2-2-2-2-1-1-1-1-2-2-2-2-1-1-1-1-5-5-5-5-4-4-4-4-5-5-5-5-4-4-4-4-----|

e|---------------------------------------------------------------------|
B|---------------------------------------------------------------------|
G|---------------------------------------------------------------------|
D|---------------------------------------------------------------------|
A|-2-------3-----5----2------------------------------------------------|
E|-0-------1-----3----0------------------------------------------------|

Tekst:
Can't you see, the devil in me
just take a look in my eyes
I will play for you, this wicked melody
it's magic will reach for your soul
It burns inside, no place to hide
this strange tune possesses your mind
It comes over you, and the nightmare is true
you'll enter the realm of the dark

Refrein:
You are bewitched... <i>[x 2]

Bewitched be delight, you'll reach the night
dancing and singing to my fiddle
So take my hand, and understand
that no-one will see you again

Refrein

I am the master of the enchanted tune
I'll play for your joy, for your soul, for you doom
My fingers they dance upon the strings like fire
weaving a spell of my burning desire
Sing with me, meet your destiny
set yourself free to the magic
So come with me, my kingdom to see
believe me you're captured my friend

Refrein

ProTabs promo.jpg

Onbeperkt en gratis toegang tot alle 25.000
Tabs & Chords en direct meespelen met

Artiest Liedje

...

Gitaarakkoorden candlemass - Bewitched

Dankzij de bladmuziek op deze pagina wordt het een stuk makkelijker om met de gitaar mee te spelen met Bewitched van candlemass De ProTabs van Gitaartabs worden door onze professionele gitaardocenten samengesteld. De tabs en chords zijn door leden zelf geplaatst. Deze undefined van candlemass met Bewitched is voor je geschreven door gitaartabs

Tabs & Chords van candlemass - Bewitched

Bij de ProTabs delen we niet alleen de tablatuur maar ook de speelwijze van Bewitched Met een beetje gitaar ervaring moet je dit gitaarliedje zeker kunnen spelen, maar als het niet lukt zijn we er altijd om je te helpen. Door een gratis account aan te maken krijg je niet alleen toegang tot deze tab ,akkoorden & tabs van Bewitched maar kun je ook onbeperkt meespelen met een van de meer dan 25.000 andere tabs & chords in onze database.

Plaats opmerking

Beoordeel deze song

Rate UsDon’t love itNot greatGoodGreatLove itRate Us

Bedankt voor je beoordeling!